De La Hoya, Estelares (tablatura)

Autor: Anónimo | 36115 visualizaciones

Pre-solo

1|-10-10-10--10-10-10--10-10-10--10-10-10----|
2|-------------------------------------------|
3|-------------------------------------------|
4|-------------------------------------------|
5|-------------------------------------------|
6|-------------------------------------------|

Solo

1|-----------------------------------|
2|--10-7-10-7-10-7-10-7-13---11-11---|
3|-----------------------------------|
4|-----------------------------------|
5|-----------------------------------|
6|-----------------------------------|

1|-----------------------------------|
2|-------10-7-10-7-10-7--------------|
3|--7/10-----------------9-12-9------|
4|------------------------------8/9~-|
5|-----------------------------------|
6|-----------------------------------|

/ = Slide
~ = Vibrato
Calificar esta versión:
Aviso: Este fichero es trabajo propio de su transcriptor y representa su interpretación personal de la canción. El material contenido en esta página es para exclusivo uso privado, por lo que se prohibe su reproducción o retransmisión, así como su uso para fines comerciales.
Más versiones de De La Hoya, Estelares
De La Hoya
acordes
De La Hoya
tablatura
Descubre más canciones de Estelares