A Veces, Estado De Sitio (tablatura)

Autor: Franko25 | 28346 visualizaciones



INTRO:

e-------------------------------------------------------------
B-----------4-------------------------------------------7-6-7-
G-------6-----6-------4---6--4-------3---6--3-------6---------
D-----4---4-----4---4---4------4---4---4----------8---8-------
A-----------------2--------------6--------------4-------------
E--2----------------------------------------------------------


*La 1º Estrofa es con lo siguiente:

e-------------------------------------------------------------
B-------------------------------------------------------------
G-------6---------6---------6---------6-----------------------
D-----4---4-----4---4-----4---4-----4---4---------------------
A-------------2---------6---------4---------------------------
E---2---------------------------------------------------------

 A veces pienso?

 En nuestro caminar?

 Pero tú ya no estas?

 No sé porque te vas?


Re#5	      Fa#5 Fa5
 Donde estarás?
Re#5		      Fa#5 Fa5
 Te empiezo a extrañar?
Re#5   		 Fa#5	    Si5				
 Comienzo a pensar, no más, 
			Do#5
 Todo es diferente estando lejos.


?REPITE EL INTRO


Fa#5	    Si5  Re#5  		  Do#5		Fa#5 Si5  
 Y si yo siento que después de todo sigues acá?
Re#5	   Do#5		Fa#5 Si5
 El problema fue la edad?
Re#5  		Do#5	Fa#5 Si5 Re#5 Do#5
 Nos volvemos a encontrar?


Re#5	      Fa#5 Fa5
 Donde estarás?
Re#5		      Fa#5 Fa5
 Te empiezo a extrañar?
Re#5   		 Fa#5	    Si5				
 Comienzo a pensar, no más,
				Do#5
 Que todo es diferente estando lejos




*Esta Estrofa es con lo siguiente:

e-------------		e----------------
B-7-6---7-6---		B-7-6-7-6---7-6--
G-----6-----6-	(X1)	G--------6-----6-	(X7)
D-------------		D----------------
A-------------		A----------------
E-------------		E----------------

 Después de tanto tiempo

 Ya no sé qué pensar, ya no sé qué esperar de ti

 Mi corazón enfermo, se niega a olvidar, me dice que es por algo


Re#5  Do#5

Re#5  Do#5


 SOLO: Fa#5 - Do#5 - Re#5 ? Si5

e-----------------------9b11r9~-------5/6-6-6h7p6?4--
B?9b10r9?6/7-----------------------------------------
G-------------10b11r10~------------------------------
D----------------------------------------------------
A----------------------------------------------------
E----------------------------------------------------

e--6--6---------------------6-------6----------------
B--7---9-7-9-7----------7-9---9-7-9--9-7-9-7-7-------
G--------------6-8--6-8------------------------------
D----------------------------------------------------
A----------------------------------------------------
E----------------------------------------------------

e-----------14-16-14----14-16-14---14-------16-14---14--------
B------14-16---------16----------16--16-16-------16----16-16--
G---15--------------------------------------------------------
D-------------------------------------------------------------
A-------------------------------------------------------------
E-------------------------------------------------------------

e---16/18-16-14-16-14------------------------
B---------------------16-14----16~---14~-----
G--------------------------------------------
D---------------------------------------16~--
A--------------------------------------------
E--------------------------------------------


*Esta Estrofa es con lo siguiente:

e-------------------------------------------------------------
B-------------------------------------------------------------
G-------6---------6---------6---------6-----------------------
D-----4---4-----4---4-----4---4-----4---4---------------------
A-------------2---------6---------4---------------------------
E---2---------------------------------------------------------
 A veces pienso, que tú nunca vendrás?

 Te quiero ir a buscar....

 Te tengo que encontrar...


Re#5	      Fa#5 Fa5
 Donde estarás
Re#5		      Fa#5 Fa5
 Te empiezo a extrañar
Re#5   		 Fa#5	    Si5				Do#5
 Comienzo a pensar nomas que todo es diferente estando lejos


*Esta Estrofa es con lo siguiente:

e-------------		e----------------
B-7-6---7-6---		B-7-6-7-6---7-6--
G-----6-----6-	(X1)	G--------6-----6-	(X7)
D-------------		D----------------
A-------------		A----------------
E-------------		E----------------


 Después de tanto tiempo

 Ya no sé qué pensar, ya no sé qué esperar de ti

 Mi corazón enfermo, se niega a olvidar, me dice que es por algo 

Fa#5 		Re#5 
 Después de tanto tiempo
Do#5 		    Si5				Fa#5
 Ya no sé qué pensar  ya no sé qué esperar de ti
	        Re#5	  Do#5			Si5
 Mi corazón enfermo se niega a olvidar me dice que es por algo 


Final: Re#5   Si5

Tab key

h       =hammer on
p       =pull off
b       =bend
r       =release bend
/       =slide
~       =vibration

F.o.g.s





Calificar esta versión:
Aviso: Este fichero es trabajo propio de su transcriptor y representa su interpretación personal de la canción. El material contenido en esta página es para exclusivo uso privado, por lo que se prohibe su reproducción o retransmisión, así como su uso para fines comerciales.
Más versiones de A Veces, Estado De Sitio
A Veces
acordes
A Veces
tablatura
Descubre más canciones de Estado De Sitio