Haciendo Bobadas, Eskorbuto (bajo) (ver 2)

Autor: Anónimo | 27099 visualizaciones



1|-------------------------------------
2|-9-9-7-7---------9-9-7-7-------------
3|---------9-9-9-9---------7-7-7-7---X2
4|-------------------------------------
¡No,no,no,no,no lo entiendo!,
          ¡no,no,no,no, no lo entiendo!
1|-------------------------------------
2|-9-9-7-7---------9-9-7-7-------------
3|---------9-9-9-9---------7-7-7-7-----
4|-------------------------------------
¡No lo entiendo!, ¡siempre están igual!,

1|-------------------------------------
2|-7-7-7-7-7-7-7-7-7/15----------------
3|-------------------------------------
4|-------------------------------------
    ¡haciendo bobadas!

1|-------------------------------------
2|-9-9-7-7---------9-9-7-7-------------
3|---------9-9-9-9---------7-7-7-7---X2
4|-------------------------------------
¡No,no,no,no,no lo entiendo!,
          ¡no,no,no,no, no lo entiendo!
1|-------------------------------------
2|-9-9-7-7---------9-9-7-7-------------
3|---------9-9-9-9---------7-7-7-7-----
4|-------------------------------------
¡No lo entiendo!, ¡siempre están igual!,

1|-------------------------------------
2|-7-7-7-7-7-7-7-7-7/15----------------
3|-------------------------------------
4|-------------------------------------
    ¡haciendo bobadas!

1|-------------------------------------
2|-9-9-7-7---------9-9-7-7-------------
3|---------9-9-9-9---------7-7-7-7---X2
4|-------------------------------------
¡No,no,no,no,no lo entiendo!,
          ¡no,no,no,no, no lo entiendo!
1|-------------------------------------
2|-9-9-7-7---------9-9-7-7-------------
3|---------9-9-9-9---------7-7-7-7-----
4|-------------------------------------
¡No lo entiendo!, ¡siempre están igual!,

1|-------------------------------------
2|-7-7-7-7-7-7-7-7-7/15----------------
3|-------------------------------------
4|-------------------------------------
    ¡haciendo bobadas!

1|-------------------------------------
2|-9-9-7-7---------9-9-7-7-------------
3|---------9-9-9-9---------7-----------
4|-------------------------------------
¡No lo entiendo!, ¡siempre están igual!





Calificar esta versión:
Aviso: Este fichero es trabajo propio de su transcriptor y representa su interpretación personal de la canción. El material contenido en esta página es para exclusivo uso privado, por lo que se prohibe su reproducción o retransmisión, así como su uso para fines comerciales.
Más versiones de Haciendo Bobadas, Eskorbuto
Haciendo Bobadas
bajo
Haciendo Bobadas (ver 2)
bajo
Descubre más canciones de Eskorbuto