Cosas De La Vida, Eskorbuto (bajo)

Autor: Anónimo | 37750 visualizaciones



El caso es que ya puse la tab para bajo de
"Cosas de la vida" de Eskorbuto,
pero la han quitado por alguna razón.
Lo mismo la han puntuado negativamente,
pero creo que mi manera de hacerlo bien vale.

ESTROFAS
----------------------------
----------------------------
---------------------0--1---
---2--2--2--2--2--4---------
sigue
----------------------------
----------------------------
---2--2--2--2--2--2--2--3---
----------------------------
sigue
----------------------------
------------------1--2--3---
---4--4--4--4--4------------
----------------------------
sigue
----------------------------
---4--4--4--4--4--2---------
---------------------4--2---
----------------------------

ESTRIBILLOS
-------------
-------------
---0--2------
---------0---
>>>
-------------
-------------
-------------
---5--7--0---

No es exactamente como lo hace el Jualma pero no pasa na,
porque el Jualma sólo va marcando y eso es muy aburrido.

Como recomendación, decir que marco ocho golpes
en el Mi del estribillo en vez de uno solo.





Calificar esta versión:
Aviso: Este fichero es trabajo propio de su transcriptor y representa su interpretación personal de la canción. El material contenido en esta página es para exclusivo uso privado, por lo que se prohibe su reproducción o retransmisión, así como su uso para fines comerciales.
Más versiones de Cosas De La Vida, Eskorbuto
Cosas De La Vida
acordes
Cosas De La Vida
bajo
Descubre más canciones de Eskorbuto