Ciudado, Eskorbuto (tablatura)

Autor: Anónimo | 41850 visualizaciones



       Cuidado      ESKORBUTO

    By: minixopunk             para dudas:
                                      dani_skating@hotmail.com
 Intro:

   |--------------------------------------------|
   |--------------------------------------------|
   |--------------------------------------------|
   |--------------------------------------------|
   |-------2-2---9-9/7-7-7-7---2-2-2-2-2-2-2----|
   |---#12/0-0---7-7/5-5-5-5---0-0-0-0-0-0-0----|

   |--------------------------------------------|
   |--------------------------------------------|
   |--------------------------------------------|
   |--------------------------------------------|
   |---2---2---9-9/7-7-7-7---2-2-2-2-2-2-2------|
   |---0---0---7-7/5-5-5-5---0-0-0-0-0-0-0------|

     Gentes ignorantes k antes nos tenian miedo,
       kogen konfianzas k nunka les dimos,

   |--------------------------------------------|
   |--------------------------------------------|
   |--------------------------------------------|
   |--------------------------------------------|
   |---2---2---9-9/7-7-7-7---2-2-2-2-2-2-2------|
   |---0---0---7-7/5-5-5-5---0-0-0-0-0-0-0------|

    kobardes! k van de valientes,
   hablando de nosotros mal ante la gente

   |--------------------------------------------|
   |--------------------------------------------|
   |--------------------------------------------|
   |--------------------------------------------|
   |---2---2---9-9/7-7-7-7---2-2-2-2-2-2-2------|
   |---0---0---7-7/5-5-5-5---0-0-0-0-0-0-0------|

 creeis k todo tiene un limite asi estais todos limitados
 cuidado! os avisamos somos los mismos k kuando empezamos

(el tab de la cancion es asi todo el tiempo inclusive el estribillo)

   antes del solo:

   |--------------------------------------------|
   |--------------------------------------------|
   |--------------------------------------------|
   |--------------------------------------------|x3
   |---2-2-2-2--2--2--7-7-7-7--7--7--9-9--------|
   |---0-0-0-0--0--0--5-5-5-5--5--5--7-7--------|

   Solo:

   |-----------------------------------------------|
   |-----------------------------------------------|
   |-----------------------------------------------|
   |--7-7-7-7-7-7-7-5-7b5-7-5-7-5-9-9-9-9-9-7-9b7--|
   |-----------------------------------------------|
   |-----------------------------------------------|

   |-----------------------------------------------|
   |-----------------------------------------------|
   |-----------------------------------------------|
   |--9-9-9-9-9-9-9-5-7-5---9-7-9-7-9-7-5-5-5------|
   |----------------------9------------------------|
   |-----------------------------------------------|

   ( y sigue kn el estribillo )

   explendida kanzion si se toka bien, para tokarla bien tienes
   k eskuxar bn la kanzion y seguir el ritmo.

   Leyenda:
    #  Rasgueo
    /  Slide
    b  Bend





Calificar esta versión:
Aviso: Este fichero es trabajo propio de su transcriptor y representa su interpretación personal de la canción. El material contenido en esta página es para exclusivo uso privado, por lo que se prohibe su reproducción o retransmisión, así como su uso para fines comerciales.
Más versiones de Ciudado, Eskorbuto
Ciudado
acordes
Ciudado
tablatura
Ciudado
bajo
Descubre más canciones de Eskorbuto