Cerebros Destruidos, Eskorbuto (tablatura)

Autor: Anónimo | 18184 visualizaciones



¡Cerebros destruidos!

intro:
D, F, C, G.

Riff:
 D                 F                C 
|-----------------|----------------|----------------|
|-----------------|----------------|----------------|
|--10------10-----|-10------10-----|-10------10-----|
|--10--12--10--12-|-10--12--10--12-|-10--12--10--12-| 
|-----------------|----------------|----------------|
|-----------------|----------------|----------------| 
 
G
|-----------------|
|-----------------|
|--10--12(13)-----|
|-----------------|
|-----------------|
|-----------------|

D
Perdida la esperanza 
F
perdida la ilusion 
C
tus problemas continuan 
G
sin hallarse solucion
D 
nuestras vidas se consumen 
F
nuestro cuerpo se destruye 
C
nuestras cuerpos caen rendidos 
G
como una maldicion
D 
el pasado ha pasado 
F
y por el nada que hacer 
C
el presente es un fracaso 
G
y el futuro no se ve 


D
la mentira es la que manda 
F
la que causa sensacion 
C
la verdad es aburrida 
G
puta frustracion 


D                      F     
prefiero morir como un cobarde 
C               G
que vivir cobardemente 
D
nuestras vidas se consumen 
F
nuestro cuerpo se destruye 
C
nuestras cuerpos caen rendidos 
G
como una maldicion 

D                          F
el terror causando habito miedo a morir 
C
ya estais muertos 
D
ya estais muertos...

 D             F               C
|-------------|---------------|-------------|
|-------------|---------------|-------------|
|-------------|---------------|-------------|
|----7-5-7-5--|----10-8-10-8--|----5-3-5-3--|
|--5----------|--8------------|--3----------|
|-------------|---------------|-------------|

 G  
|------------------|
|------------------|
|---10-10-10-10-10-|
|---10-10-10-10-10-|
|------------------|
|------------------|

D, F, C, G.





Calificar esta versión:
Aviso: Este fichero es trabajo propio de su transcriptor y representa su interpretación personal de la canción. El material contenido en esta página es para exclusivo uso privado, por lo que se prohibe su reproducción o retransmisión, así como su uso para fines comerciales.
Más versiones de Cerebros Destruidos, Eskorbuto
Cerebros Destruidos
acordes
Cerebros Destruidos
tablatura
Cerebros Destruidos
bajo
Descubre más canciones de Eskorbuto