Anti-todo, Eskorbuto (bajo)

Autor: Anónimo | 20593 visualizaciones



1|------------------------------------------
2|----------------------------5-5-5-5-------
3|-------------------8-8-8-8----------------
4|-5--5-5-5-5-5-5-5-------------------------

1|------------------------------------------
2|----------------------------5-5-5-5-------
3|-------------------8-8-8-8----------------
4|-5--5-5-5-5-5-5-5-------------------------
  Nada mas nacer    ¡Aaaaaaaahhhhhhhh!

1|------------------------------------------
2|----------------------------5-5-5-5-------
3|-------------------8-8-8-8----------------
4|-5--5-5-5-5-5-5-5-------------------------
  empiezan a        ¡Aaaaaaaahhhhhhhh!
  corrompernos

1|------------------------------------------
2|----------------------------5-5-5-5-------
3|-------------------8-8-8-8----------------
4|-5--5-5-5-5-5-5-5-------------------------
  crecemos y         ¡Aaaaaaaahhhhhhhh!
  emvejecemos

1|------------------------------------------
2|-7--7-7-7-7-7-7-7-------------------------
3|------------------------------------------
4|------------------------------------------
  en absoluta sumision

1|------------------------------------------
2|-6---6---6--------------------------------
3|---5---5---5------------------------------
4|------------------------------------------
  no hay amigos, ni enemigos, lucha necia

1|------------------------------------------
2|-6-6-7-7-8-8-9-9--------------------------
3|------------------------------------------
4|------------------------------------------
  ¡todos contra todos!

1|------------------------------------------
2|----------------------------5-5-5-5-------
3|-------------------8-8-8-8----------------
4|-5--5-5-5-5-5-5-5-------------------------
                    ¡Aaaaaaaahhhhhhhh!

1|------------------------------------------
2|----------------------------5-5-5-5-------
3|-------------------8-8-8-8----------------
4|-5--5-5-5-5-5-5-5-------------------------
 los que trabajan   ¡Aaaaaaaahhhhhhhh!

1|------------------------------------------
2|----------------------------5-5-5-5-------
3|-------------------8-8-8-8----------------
4|-5--5-5-5-5-5-5-5-------------------------
  se olvidan de      ¡Aaaaaaaahhhhhhhh!
   los parados

1|------------------------------------------
2|----------------------------5-5-5-5-------
3|-------------------8-8-8-8----------------
4|-5--5-5-5-5-5-5-5-------------------------
  y los que estan   ¡Aaaaaaaahhhhhhhh!
   libres

1|------------------------------------------
2|-7--7-7-7-7-7-7-7-------------------------
3|------------------------------------------
4|------------------------------------------
  de los encarselados

1|------------------------------------------
2|-6---6---6--------------------------------
3|---5---5---5------------------------------
4|------------------------------------------
  no hay amigos,ni enemigos, lucha necia

1|------------------------------------------
2|-6-6-7-7-8-8-9-9--------------------------
3|------------------------------------------
4|------------------------------------------
  ¡todos contra todos!

1|------------------------------------------
2|----------------------------5-5-5-5-------
3|-------------------8-8-8-8----------------
4|-5--5-5-5-5-5-5-5-------------------------
                    ¡Aaaaaaaahhhhhhhh!

1|------------------------------------------
2|----------------------------5-5-5-5-------
3|-------------------8-8-8-8----------------
4|-5--5-5-5-5-5-5-5-------------------------
  ¿de que nos sirven ¡Aaaaaaaahhhhhhhh!
  manifestaciones?

1|------------------------------------------
2|----------------------------5-5-5-5-------
3|-------------------8-8-8-8----------------
4|-5--5-5-5-5-5-5-5-------------------------
  ¿de que nos sirven ¡Aaaaaaaahhhhhhhh!
  huelgas generales?

1|------------------------------------------
2|----------------------------5-5-5-5-------
3|-------------------8-8-8-8----------------
4|-5--5-5-5-5-5-5-5-------------------------
  ¿de que nos sirven? ¡Aaaaaaaahhhhhhhh!
   ¡nos sirve!

1|------------------------------------------
2|-7--7-7-7-7-7-7-7-------------------------
3|------------------------------------------
4|------------------------------------------
  ¿de que nos sirven?
   ¡nos sirve!

1|------------------------------------------
2|-6---6---6--------------------------------
3|---5---5---5------------------------------
4|------------------------------------------
  no hay amigos,ni enemigos, lucha necia

1|------------------------------------------
2|-6-6-7-7-8-8-9-9--------------------------
3|------------------------------------------
4|------------------------------------------
  ¡todos contra todos!

1|------------------------------------------
2|----------------------------5-5-5-5-----x4
3|-------------------8-8-8-8----------------
4|-5--5-5-5-5-5-5-5-------------------------
                    ¡Aaaaaaaahhhhhhhh!

1|------------------------------------------
2|-7--7-7-7-7-7-7-7-------------------------
3|------------------------------------------
4|------------------------------------------

1|------------------------------------------
2|-6---6---6--------------------------------
3|---5---5---5------------------------------
4|------------------------------------------
  no hay amigos,ni enemigos, lucha necia

1|------------------------------------------
2|-6-6-7-7-8-8-9-9--------------------------
3|------------------------------------------
4|------------------------------------------
  ¡todos contra todos!

1|------------------------------------------
2|----------------------------5-5-5-5-------
3|-------------------8-8-8-8----------------
4|-5--5-5-5-5-5-5-5-------------------------
                    ¡Aaaaaaaahhhhhhhh!

1|------------------------------------------
2|----------------------------5-5-5-5-------
3|-------------------8-8-8-8----------------
4|-5--5-5-5-5-5-5-5-------------------------
 nada mas nacer     ¡Aaaaaaaahhhhhhhh!

1|------------------------------------------
2|----------------------------5-5-5-5-------
3|-------------------8-8-8-8----------------
4|-5--5-5-5-5-5-5-5-------------------------
  empiezan a        ¡Aaaaaaaahhhhhhhh!
  corrompernos

1|------------------------------------------
2|----------------------------5-5-5-5-------
3|-------------------8-8-8-8----------------
4|-5--5-5-5-5-5-5-5-------------------------
 eso nos demuestra  ¡Aaaaaaaahhhhhhhh!

1|------------------------------------------
2|-7--7-7-7-7-7-7-7-------------------------
3|------------------------------------------
4|------------------------------------------
  ¡que somon anti todo!

1|------------------------------------------
2|-6---6---6--------------------------------
3|---5---5---5------------------------------
4|------------------------------------------
  no hay amigos,ni enemigos, lucha necia

1|------------------------------------------
2|-6-6-7-7-8-8-9-9--------------------------
3|------------------------------------------
4|------------------------------------------
  ¡todos contra todos!

esta es la de anti todo espero ke les guste
es una cancion muy fasil solo tienen que
oirla para sacarla.





Calificar esta versión:
Aviso: Este fichero es trabajo propio de su transcriptor y representa su interpretación personal de la canción. El material contenido en esta página es para exclusivo uso privado, por lo que se prohibe su reproducción o retransmisión, así como su uso para fines comerciales.
Más versiones de Anti-todo, Eskorbuto
Anti-todo
acordes
Anti-todo
bajo
Descubre más canciones de Eskorbuto