Antes En Las Guerras, Eskorbuto (bajo)

Autor: Anónimo | 42666 visualizaciones



Antes en las guerras podían regresar
volver a sus casas, volver a empezar
una vida nueva: todo quedó atrás
la la la la la la la

INTRO)
--------------------------------------------------
--------------------------------------------------
--4--4--4--4--------------------------7--7--7--7--
--------------5--5--5--5--7--7--7--7--------------
En el último compás entran la batería y la guitarra.

CANCIÓN)
--------------------------------------------------
--------------------------------------------------
--4--4--4--4--------------------------7--7--7--7--
--------------5--5--5--5--7--7--7--7--------------

FINAL)
-----------------------------------------
-----------------------------------------
--4--4--4--4--------------------------7--
--------------5--5--5--5--7--7--7--7-----





Calificar esta versión:
Aviso: Este fichero es trabajo propio de su transcriptor y representa su interpretación personal de la canción. El material contenido en esta página es para exclusivo uso privado, por lo que se prohibe su reproducción o retransmisión, así como su uso para fines comerciales.
Más versiones de Antes En Las Guerras, Eskorbuto
Antes En Las Guerras
acordes
Antes En Las Guerras
tablatura
Antes En Las Guerras
bajo
Descubre más canciones de Eskorbuto