Amor De Engaño, Erreway (tablatura)

Autor: ZaNi | 17560 visualizaciones

Intro: F – C – Dm – Am – Bb – F – Gm – C 
e|------------8-8-----------------------------------------------------
B|-10-8----8.---------------------------10-10-------------------------
G|------10--------10-9-10.-10-10-9-7-9.-------7-9-10.-7---------10-10-
D|------------------------------------------------------10-8-10-------
A|--------------------------------------------------------------------
E|--------------------------------------------------------------------

e|-------------------------|
B|-10/11-10----8/10.-7/8.--|
G|----------10-------------|
D|-------------------------|
A|-------------------------|
E|-------------------------|

F           C	Dm          Am
Estamos tan cerca y estamos tan lejos 
Bb	F	Gm	C	(Riff 1)
compartimos todo y a la ves tan poco
F	C	Dm	Am
y no es que me importe sentirte a mi lado
Bb	F	Gm	C	(Riff 2)
pero es tan difícil esto que ahora siento.
 
Riff 1
e|-------------------|
B|-------------------|
G|-7-9-9/10-7-6/7-5.-|
D|-------------------|
A|-------------------|
E|-------------------|

Riff 2
e|-------------------------|
B|-10/11/10-----8/10----8.-|
G|----------10-------10----|
D|-------------------------|
A|-------------------------|
E|-------------------------|
 
Coro
          F       	C                  Gm    (Riff 3)   C
Amor de engaño, digo te odio, miento, te extraño
           F		          C           Am7	F7
Amor prohibido, busco perderte y más te amo
        Bb       C    	            Am	Dm
Amor no ves, me estás matando 
        Bb    	C   	 F – F7	(Riff 4)
mi corazón esta sangrando.
        Bb   C    Am		Dm
Amor no ves, me estás matando 
        Bb       C    	   (Intermedio)
mi corazón esta sangrando.

Riff 3			  Riff 4
e|-13-12---------|	e|------------------------------------------|
B|-------13.-13.-|	B|----13----10/13-13/15-13----------9/10----|
G|---------------|	G|-10----12----------------10/12-10------10-|
D|---------------|	D|------------------------------------------|
A|---------------|	A|------------------------------------------|
E|---------------|	E|------------------------------------------|

Intermedio: ( F – C – Dm – Am – Bb – F – Gm – C )
e|------------8-8-----------------------------------------------------
B|-10-8----8.---------------------------10-10-------------------------
G|------10--------10-9-10.-10-10-9-7-9.-------7-9-10.-7---------10-10-
D|------------------------------------------------------10-8-10-------
A|--------------------------------------------------------------------
E|--------------------------------------------------------------------

e|--------------------------8/6/5---4/5------------|
B|-10/11-10----8/10.-7/8.---------6-----8-6-6/8-6.-|
G|----------10-------------------------------------|
D|-------------------------------------------------|
A|-------------------------------------------------|
E|-------------------------------------------------|

F           C	Dm          Am
Estamos tan solos tan apasionados
Bb	F	Gm	C	    (Riff 5)
nos deseamos tanto y hay tanto rechazo
F           C	Dm          Am
y no es que yo sienta tu piel en mis manos
Bb	F	Gm	C	(Riff 6)
ganas de gritarte como yo te amo.

Riff 5					     Riff 6	
e|--------------8-10/12-10.-8-8-|		e|-----------|
B|-8----8-10-11-----------------|		B|-11-10-6-8-|
G|---10-------------------------|		G|-----------|
D|------------------------------|		D|-12-10---8-|
A|------------------------------|		E|-----------|
E|------------------------------|	  	A|-----------|

Coro
           F       	C              Gm    (Riff 7)   C
Amor de engaño, digo te odio, miento, te extraño
           F	        C           Am7	    F7
Amor prohibido, busco perderte y más te amo
        Bb       C    	    Am   (Riff 8)  Dm
Amor no ves, me estás matando
        Bb    	C   	 F – F7	
mi corazón está sangrando.
        Bb   C    Am	   Dm
Amor no ves, me estás matando 
        Bb       C    	  (Riff 9)
mi corazón está sangrando.
 
Riff 7
e|----------------------|
B|-10/11-10-------------|
G|----------11/12-11/12-|
D|----------------------|
A|----------------------|
E|----------------------|

Riff 8
e|----------------------|
B|-10/11-10-------9/10.-|
G|----------12-12-------|
D|----------------------|
A|----------------------|
E|----------------------|
 
Riff 9 ( F – C – Dm – F7 )
e|--------------------------------------------|
B|-11-10/11/10----------10.-------------------|
G|------------10-10/12-----12/10/9-10.--------|
D|-------------------------------------10-10.-|
A|--------------------------------------------|
E|--------------------------------------------|

             Bb     C	        Am  Dm  (Riff 10) 
Pero amor no ves me estás matando 
        Bb	C	(Final)
mi corazón está sangrando.

Riff 10
e|--------------------|
B|-11/10--------------|
G|-------10-----------|
D|----------10/12-10.-|
A|--------------------|
E|--------------------|

Final ( F – C – Dm – Am – Bb – F – Gm – C )
e|------------8-8-----------------------------------------------------
B|-10-8----8.---------------------------10-10-------------------------
G|------10--------10-9-10.-10-10-9-7-9.-------7-9-10.-7---------10-10-
D|------------------------------------------------------10-8-10-------
A|--------------------------------------------------------------------
E|--------------------------------------------------------------------

e|-------------------------|
B|-10/11-10----8/10.-7/8.--|
G|----------10-------------|
D|-------------------------|
A|-------------------------|
E|-------------------------|

	     F       (Riff 11)
miento te extraño.

Riff 11
e|-------------------------13-|
B|----------10-11-13-(9/10)---|
G|----10-12-------------------|
D|-10-------------------------|
A|----------------------------|
E|----------------------------|


*Lo que está en paréntesis se puede obviar, pero está en la canción. :)

 

Comentarios del colaborador: esta canciones muy buena aunqcreo q si hay algun erros mandenmenlo a mi correo eduardom_z_t@hotmail.com saludoa a m gnt d lima arriba alianza

Calificar esta versión:
Aviso: Este fichero es trabajo propio de su transcriptor y representa su interpretación personal de la canción. El material contenido en esta página es para exclusivo uso privado, por lo que se prohibe su reproducción o retransmisión, así como su uso para fines comerciales.
Más versiones de Amor De Engaño, Erreway
Amor De Engaño
acordes
Amor De Engaño
tablatura
Descubre más canciones de Erreway