Cosa Mas Bella, Eros Ramazzotti (bajo)

Autor: Anónimo | 44723 visualizaciones

COSA MAS BELLA
INTRO
C#-D#m  C#-D#m  C#-D#m  C#-D#m

*sobre estos ultimos tonos toca esto.
e|-------------------
B|-------------------
G|----------6-5---3--
D|--3-3-4-6-----6----
A|-------------------
E|-------------------

VERSO
G|---------------------|
D|---------------------| x4
A|--/4444444--6666666--|
E|---------------------|

POST-VERSO
…contigo hace falta
G|--------------------------------------------------------------------|
D|--------------------------------------------------------------------|
A|--------111111----------------------111111--------------------4444--|
E|-444444--------444444-222222-444444--------444444-2222-444444-------|

VERSO x4
POST-VERSO

PRECORO
  …cantar al amor
G|-----------------------------------------------------|
D|-----------------------------------------------------|
A|-666666-------------------1111-666666----------------|
E|--------333333-444444-1111------------333333-444444--|

CORO 1
  …cosa mas bella
G|-------------------------------------------------------------|
D|-------------------------------------------------------------|
A|------1111-6666-------333333-44444---------------------11111-|
E|-1111-----------33333-------------444444-333333-111111-------|

   BRIDGE
G|------------|
D|------------|
A|---444------|
E|-444----444-|


VERSO x4
POST-VERSO
PRECORO

CORO 2
G|------------------------------------------------------------------------|
D|------------------------------------------------------------------------|
A|-----111-666666-------333333-44444---------------------1111111-6666666--|
E|-111------------33333-------------444444-333333-111111------------------|


POST CORO
  ||  A#  |  G#  |  A#  |  D#  |  A#  |  G# ||
G|---------------------------------------------|
D|---------------------------------------------|
A|--111111--------111111-666666-111111---------|
E|---------444444----------------------444444--|

CORO 1

FINAL
G|------------------------------------------------------|
D|-0-0-1-3----------------------------------------------|
A|---------111111------------111-666666-111111----------|
E|----------------444444-111--------------------444444--|

G|---------------------------------------------|
D|---------------------------------------------|
A|------111-666666-111111--------------111--6--|
E|--111--------------------444444--111---------|
Calificar esta versión:
Aviso: Este fichero es trabajo propio de su transcriptor y representa su interpretación personal de la canción. El material contenido en esta página es para exclusivo uso privado, por lo que se prohibe su reproducción o retransmisión, así como su uso para fines comerciales.
Más versiones de Cosa Mas Bella, Eros Ramazzotti
Cosa Mas Bella
acordes
Cosa Mas Bella (ver 2)
acordes
Cosa Mas Bella
bajo
Cosa Mas Bella
teclado
Descubre más canciones de Eros Ramazzotti