Soy Sano, Ericson Alexander Molano (tablatura)

Autor: Anónimo | 46305 visualizaciones



QUE DIOS LES BENDIGA MUCHISIMO Y SIGAN SIRVIENDO AL SEÑOR CON TODO
SU CORAZON JESUS ESTA BUSCANDO VERDADEROS ADORADORES EN ESPIRITU Y
VERDAD Y OBEDIENTES A SU LLAMADO ISAIAS 6-8
ATT.RUBEN.PELAGIO.T.


E------------------------------------------------------------/
B--15-----15------15-15-14-15----15-----15------15-15-17-15--/
G-----14-----14---------------------14-----14----------------/
D------------------------------------------------------------/
A------------------------------------------------------------/
E------------------------------------------------------------/
  ESTO SE REPITE DOS VECES Y LUEGO...
  BBB                 BBB
E-------------------------------------------17-------/
B--17-17-17--15-17------15--17-17-17----15-----------/
G----------------------------------------------------/
                        S
E--------------------------------------------------/
B--20-19-17-----------15----17-15------------------/
G-----------------14-------------------------------/





Calificar esta versión:
Aviso: Este fichero es trabajo propio de su transcriptor y representa su interpretación personal de la canción. El material contenido en esta página es para exclusivo uso privado, por lo que se prohibe su reproducción o retransmisión, así como su uso para fines comerciales.
Más versiones de Soy Sano, Ericson Alexander Molano
Soy Sano
acordes
Soy Sano
tablatura
Descubre más canciones de Ericson Alexander Molano