Siento Su Gloria, Ericson Alexander Molano (tablatura)

Autor: Anónimo | 26065 visualizaciones



   G               Bm7                    Am7                 D ad
E-------------/ -----------/ ------------------------------/--------1--/
B--0----0-3--3/ ---3-3-5-3-/ -------1---------------1------/--3-------7/
G--0--2-------/ ---2-2-2-2-/ ------- (x3)----------- (x3)--/---(x2)----/
D-------------/ ---4-4-4-4-/ -------2---------------2------/--4--------/
A--2----------/ ---2-2-2-2-/ -(0)---0-----0--2--3---0------/--5--------/
E--3------3--3/ -----------/ ------------------------------/-----------/


G
TOMAME SEÑOR
         Bm7
YO TE ENTREGO EL CORAZON
 Am7
NUEVO QUIERO SER
     D ad
CAMBIAME CON TU AMOR
G
TU ERES REAL
     Bm7
MILAGROSO REDENTOR
   Am7
MANIFIESTATE AQUI
    D ad
AL RENDIRTE ADORACION

CORO
  G
SIENTO SU GLORIA
          Bm7
ES SU PRESENCIA
        Am7 variacion  (A--0--2-3)
SON SUS MANOS
          D ad
SANANDO MI SER

SOLO
E-------------------------------------/
B-------------------------------------/
G----------------------------7/9-7--9-/
D-------7-7--9-7-9/11--12-11--------11/
A---7/9-------------------------------/
E-------------------------------------/

E-----------------------------------/
B-----------------------------------/
G-----------------------------------/
D--9-7-9/11--11/6---11-11--9-7------/
A-----------------------------11----/
E-----------------------------------/

E-------------------------/
B--------------7--10-12-10/
G----------7-9------------/
D------7-9----------------/
A--7/9--------------------/
E-------------------------/


E -8/10-9-------------------------------------------/
B --------12-10--10/12-12/9--9hp10------------------/
G ---------------------------------9hp11------------/
D ---------------------------------------12p11p9--7-/
A --------------------------------------------------/
E --------------------------------------------------/


    A
SIENTO SU GLORIA
     C#m7
EN SU PRESCENCIA
C#m7 Cm7     Bm7  variacion (A--2-4-5)
SON SUS MANOS
     E
SANANDO MI SER...


ESPERO K LES HAYA GUSTADO Y MAS A NUESTRO SEÑOR JESUCRISTO**
ESTA ES MI PRIMERA TRANSCRIPCION...

PARA COMENTARIOS, QUEJAS O CUALQUIER OTRA COSA
ESTE ES MI CORREO  [email protected]

QUE EL AMOR DE DIOS ESTE CON USTEDES***  DIOS LOS BENDIGA

     D ad
E----0----/
B----3----/
G----0----/
D----4----/
A----5----/
E----0----/





Calificar esta versión:
Aviso: Este fichero es trabajo propio de su transcriptor y representa su interpretación personal de la canción. El material contenido en esta página es para exclusivo uso privado, por lo que se prohibe su reproducción o retransmisión, así como su uso para fines comerciales.
Más versiones de Siento Su Gloria, Ericson Alexander Molano
Siento Su Gloria
acordes
Siento Su Gloria (ver 2)
acordes
Siento Su Gloria
tablatura
Descubre más canciones de Ericson Alexander Molano