Dame Amor, Erick Rubin (bajo)

Autor: Anónimo | 38993 visualizaciones



este es el Tab para bajo aparte que lleva los acordes.
Check it out.
Justo arriba de la nota del bajo es donde se mete el acorde.

Bas..
Este es un bajo completamente FUNKY.
      D            D  E   F   F#     E            A   G   F   E
G-------------------7---9---10--11-----------------------------------
D-----------5-7-------------------------------7-9---7---5---3---2----
A--5-5--5-8-----5-----7---8---9------7-7--7-10-----------------------
E-------------------------------------------------5---3---1---0------
B--------------------------------------------------------------------

la segunda vuelta empieza igual, pero por el acomodo de trastes puedes empezar asi:
    D            D    E   F   F#     E            A   G   F   E   
G-----------0-2-----7---9---10--11-----------------------------------
D--0-0--0-3-----0-----------------------------7-9---7---5---3---2----
A---------------------7---8---9------7-7--7-10-----------------------
E-------------------------------------------------5---3---1---0------
B--------------------------------------------------------------------

    D            D    E   F   F#     E            A   G   F   E 
G-------------------7---9---10--11-----------------------------------
D-----------5-7-------------------------------7-9---7---5---3---2----
A--5-5--5-8-----5-----7---8---9------7-7--7-10-----------------------
E-------------------------------------------------5---3---1---0------
B--------------------------------------------------------------------

    D            D    E   F   F#     E            A   B   C    C#
G-----------0-2-----7---9---10--11-----------------------------------|
D--0-0--0-3-----0-----------------------------7-9---7---9---10---11--|
A---------------------7---8---9------7-7--7-10-----------------------|
E-------------------------------------------------5---7---8----9-----|
B--------------------------------------------------------------------|

esa es la introducción. por eso también puse el arreglillo del final de la intro. 
es importante porque da entrada a la voz.
bueno. Este es el verso.

   D            D     E   F   F#    G                        | muy rapido--------|
G-------------------7---9---10--11---------------------------------------------10--
D-----------5-7----------------------------------------------------10----10-12-----
A--5-5--5-8-----5-----7---8---9-----10--10----10-10---10-10--10-12----12-----------
E------------------------------------------10--------------------------------------
B----------------------------------------------------------------------------------

      D            D  E   F   F#     E            A   G   F   E
G-------------------7---9---10--11-----------------------------------|
D-----------5-7-------------------------------7-9---7---5---3---2---:|
A--5-5--5-8-----5-----7---8---9------7-7--7-10-----------------------|
E-------------------------------------------------5---3---1---0-----:|
B--------------------------------------------------------------------|

Todo esto Dos veces.

Luego entra el interlude para el Coro.

   A#         A   A7      D            G    G    A   A#        A7                       
G-----------------------------------------------------------------------------
D-------------------------0-0---0-0------5-----5---7--------------------------
A--1-1--1-1--0-0--0-0-1-0-----0-----0-----------------------------------------
E------1---------0---------------------3-----3---5---6-6---6-6--5-5---5-5-78--
B------------------------------------------3-------------6----------5---------

y entra inmediatamente el coro.  Es el paseo totalmente FUnky.

    D   E   F   F#  G    F   E   D    D   C   B   A   G   F   E   D
G-----7---9---10--11---12--10--9---7----7---5---4------------------------
D---------------------------------------------------7---5---3---2--------
A---5---7---8---9---10---8---7---5----5---3---2---------------------5----
E-------------------------------------------------5---3---1---0----------
B-----------------------------------------------------------------3------

Lo mismo. la segunda vuelta empieza igual. con variación en el final.

    D   E   F   F#  G    F   E   D   A#  A   G   F   A   G   F   E
G-----7---9---10--11---12--10--9---7-----------------------------------|
D--------------------------------------8---7---5---3---7---5---3---2---|
A---5---7---8---9---10---8---7---5-------------------------------------|
E------------------------------------6---5---3---1---5---3---1---0-----| Intro.
B----------------------------------------------------------------------|

Y entra la Intro. entra de volada.
luego entra el Verso. Interlude y Coro. y luego se da un bridge que va asi:

Pueden hacer dos cosas. 

si tienen bajo de 5 o 6 cuerdas            
   D                                       C#  C
G------------------------------------------------------------------------------------|    
D------------------------------------------------------------------------------------|
A----5---5---5---5---5---5---5---5---5---5---4---3---3---3---3---3---3---3---3---4---|
E-----------------------------------------------------------------------------------:|
B--3---3---3---3---3---3---3---3---3---3---2---1---1---1---1---1---1---1---1---2-----|


  Si tienen bajo de 4 cuerdas

   D                                       C#  C
G----7---7---7---7---7---7---7---7---7---7---6---5---5---5---5---5---5---5---5---6---|
D-----------------------------------------------------------------------------------:|
A--5---5---5---5---5---5---5---5---5---5---4---3---3---3---3---3---3---3---3---4-----|
E-----------------------------------------------------------------------------------:|
B------------------------------------------------------------------------------------|

Entra Intro de nuevo y pasas a Interlude.
luego Coro x2
y al final Intro hasta terminar la cancion.

Esa es toda la cancion.. esta Algo puesta para digitación y rapidez. asi que hay que
practicarla y sobre todo oir la cancion para que oigan los tiempos que van mucho
mas rapido. pero bueno. a practicarle.

Saludos a Todos. y a Los Monos de Dalí.
GuaLo





Calificar esta versión:
Aviso: Este fichero es trabajo propio de su transcriptor y representa su interpretación personal de la canción. El material contenido en esta página es para exclusivo uso privado, por lo que se prohibe su reproducción o retransmisión, así como su uso para fines comerciales.
Más versiones de Dame Amor, Erick Rubin
Dame Amor
acordes
Dame Amor
bajo
Descubre más canciones de Erick Rubin