Cuentame, Equilivre (acordes) (ver 2)

Autor: jin lee | 35905 visualizaciones

abm7dfsosmg
 El intro comienza asi
       Bm7                                 G
E-----------------------------------------5-----
B---------3---2/3-2/3-2----------------3--3----3
G-------2---------------2------------0--------3-
D-----4--------------------4--------0--------3--
A---2-------------------------------------------
E----------------------------------3------------

      A                    Bm7    
E-----------------------------------------------
B------3--2-2/3-----------3----2----------------
G-----2---2-----2--------2----------------------
D----2-----------2------4-----------------------
A----------------------2------------------------
E-----------------------------------------------


Luego en la estrofa sigue lo mismo hasta que llega al precoro
Que son los sig acordes
 Bm7                 G
Cuantas horas pase, cuanto tiempo espere
        A                D     A 
que me mires así como lo ves a el
        Bm7                  G
parece que fue ayer que me viste caer
        A                   D        A 
que por ti me enrede y eso lo puedo ver

                      G             A 
/Y es que ya!!Ya me canse de tantas mentiras
           F#m                  Bm7                 
 no quiero que este juego sea mi vida
      G                         A  
y ya no doy mas no encuentro salida
            F#m              Bm7         
no quiero tener que amarte a escondidas/

G                       A           Bm7          F#m

Ohhhhhhhhhhhh................................... 
Calificar esta versión:
Aviso: Este fichero es trabajo propio de su transcriptor y representa su interpretación personal de la canción. El material contenido en esta página es para exclusivo uso privado, por lo que se prohibe su reproducción o retransmisión, así como su uso para fines comerciales.
Más versiones de Cuentame, Equilivre
Cuentame
acordes
Cuentame (ver 2)
acordes
Cuentame
tablatura
Descubre más canciones de Equilivre