El Rock De La Carcel, Enrique Guzmán (tablatura)

Autor: Anónimo | 19034 visualizaciones



Aqui les dejo el solo de esta rola
e------------------10----13-13-13-13-13-----
B-----10----12------------------------------
G-------------------------------------------
D------------------------------------------- (2 veces)
A-------------------------------------------
E-------------------------------------------

e----------10---13---------10---13---------10---13-13-13-13-13-
B----10---12--------10---12---------10---12--------------------
G--------------------------------------------------------------
D--------------------------------------------------------------
A--------------------------------------------------------------
E--------------------------------------------------------------


e----10-10-12-12-13-13-12-12-10-10-------10--9--10-----
B----------------------------------------10--9--10-----
G------------------------------------------------------
D------------------------------------------------------ (2 veces)
A------------------------------------------------------
E------------------------------------------------------


e----------10---13-13-13-13-13----12-12-12-12-12-10-9-10
B---10---12--------------------------------------10-9-10
G------------------------------------------------------
D------------------------------------------------------
A------------------------------------------------------
E------------------------------------------------------

Espero les sirva chequenlo


peticiones a [email protected]





Calificar esta versión:
Aviso: Este fichero es trabajo propio de su transcriptor y representa su interpretación personal de la canción. El material contenido en esta página es para exclusivo uso privado, por lo que se prohibe su reproducción o retransmisión, así como su uso para fines comerciales.
Más versiones de El Rock De La Carcel, Enrique Guzmán
El Rock De La Carcel
acordes
El Rock De La Carcel
tablatura
Descubre más canciones de Enrique Guzmán