Azul, Enrique Bunbury (tablatura)

Autor: Anónimo | 23220 visualizaciones



La siguiente canción de Enrique Búmbury: Azul, está sencilla, espero que la disfruten.
Zairy: Va dedicada para tí, Te Amo CG.

Claves para la interpretación:

$:jalar hasta lograr el tono
&:lo inverso de $

Y el siguiente acorde que inventé:
        
E-1     E|-O-|---|---|---|
B-4     B|---|---|---|-O-|
G-3 =   G|---|---|-O-|---|
D-3     D|---|---|-O-|---|
A-x     A|-x-|---|---|---|
E-x     E|-x-|---|---|---|
        /

que le puse Az#. Notar que no es igual que Asus#


Intro:
                        C7m      Cm      G7#      Az#      A#
E-11~---4$6--11-------|----------4$6-----4-------------------
B-----4---------4$6&4-|--------------------------------------
G---------------------|--------------------------------------
D---------------------|--------------------------------------
A---------------------|--------------------------------------
E---------------------|--------------------------------------

Final:

E---3---3-----------------------------------|---3---3----------------------------------------
B-4---6---4-6-3-4-1-------------------------|-4---6---4-6-3-4-1------------------------------
G-------------------3-1-0-----------0-------|-------------------3-1-0-----------0------------
D-------------------------3-1-0-1-3---4-543-|-------------------------3-1-0-1-3---4-3333333-
A-------------------------------------------|------------------------------------------------
E-------------------------------------------|------------------------------------------------

E---3---3-----------------------------------
B-4---6---4-6-3-4-1-------------------------
G-------------------3-1-0-----------0-------
D-------------------------3-1-0-1-3---4-543-
A-------------------------------------------
E-------------------------------------------



Y ahí termina la canción,que la disfruten y cualquier duda este es mi correo:
dobleclick_mx@yahoo.com

Fuente original: LaCuerda
Colaborador original: Christian Gabriel Varela Sauceda [dobleclick_mx@yahoo.com]





Calificar esta versión:
Aviso: Este fichero es trabajo propio de su transcriptor y representa su interpretación personal de la canción. El material contenido en esta página es para exclusivo uso privado, por lo que se prohibe su reproducción o retransmisión, así como su uso para fines comerciales.
Más versiones de Azul, Enrique Bunbury
Azul
acordes
Azul
tablatura
Descubre más canciones de Enrique Bunbury