Apuesta Por El Rock And Roll, Enrique Bunbury (bajo)

Autor: Anónimo | 33676 visualizaciones



  1     2     3     4     1     2     3     4
G|:------------------------------------------------:|
D|:------------------------------------------------:|
A|:10-9-7~~~~~~------------7-9-10~~~~~~------------:|
E|:------------------------------------------------:|

   1     2     3     4     1     2     3     4
G|:-------------------------------------------------------------:|
D|:-------------------------------------------------------------:|
A|:10-9-7---7-7--9-10----10--10-9-7---7-7-9-10----10--10-9------:|
E|:-------7--7--------10---10-------7--7-------10---10----------:|

   1     2     3     4     1     2     3     4
G|:-------------------------------------------------------------:|
D|:--------------------------------7-9-9-9-7--------------------:|
A|:5---5-5-6-7---7-7-9-10----10-10----------10-9-7--------------:|
E|:--5--5------7--7------10---10--------------------------------:|

En general es toda la cancion solo hay que oirla muy bien y
prestarle atension a los cambios, espero os guste cualquier
comentario este es mi correo hector_david95@hotmail.com





Calificar esta versión:
Aviso: Este fichero es trabajo propio de su transcriptor y representa su interpretación personal de la canción. El material contenido en esta página es para exclusivo uso privado, por lo que se prohibe su reproducción o retransmisión, así como su uso para fines comerciales.
Más versiones de Apuesta Por El Rock And Roll, Enrique Bunbury
Apuesta Por El Rock And Roll
acordes
Apuesta Por El Rock And Roll
bajo
Descubre más canciones de Enrique Bunbury