Lamento Boliviano, Enanitos Verdes (tablatura) (ver 3)

Autor: Anónimo | 39254 visualizaciones

esta ancion es ta super buena escuchenla e intentenla eta genial



Em
Me quieren agitar me incitan a gritar

Bm                                Bm A#m
soy como una roca, palabras no me tocan

Am
adentro hay un volcán que pronto va a estallar

Em                         B7
yo quiero estar tranquilo.


Em
Es mi situación una desolación

Bm                              Bm A#m
soy como un lamento, lamento boliviano

Am
que un día empezó y no va a terminar

Em                  B7
ya nadie hace daño.

Em  Bm               Bm A#m Am          Em  B7
Uoh-yoh-yoh-yoh-oh-oh       eh-eh-eh-eh-yeh

                 Em              Bm
Y [yo ya] estoy aquí borracho y loco

Bm A#m Am                   Em        B7
y mi corazón idiota siempre brillara

           Em               Bm  
y yo te amaré, te amaré por siempre

Bm  A#m Am
nena no te peines en la cama

                  Em                B7
que los viajantes se van a atrasar?

Solo
                                              
e---0-2-3-2-0---|---2h3-3---------------------|---------12--------------------|
B-0-----------0-|--3------5h3-5/7-------------|------------15^--15------------|
G---------------|-4---------------------------|-13-13h15-----------14-12-14~--|
D---------------|------------------9~-7h9p7~--|-------------------------------|
A---------------|-----------------------------|-------------------------------|
E---------------|-----------------------------|-------------------------------|

                                    
e--------------------------------|-12h14-15^--15-14-12--15-14-12--15-14-12--|
B--16h14h12p14--12-11-12^--------|------------------------------------------|
G-------------------------12-11--|------------------------------------------|
D--------------------------------|------------------------------------------|
A--------------------------------|------------------------------------------|
E--------------------------------|------------------------------------------|

             
e-----------------|---------------------------------|-------14-14h15-14-16--|14/15-----
B--10-12-10/9h10--|------10h11-10h11--12h11/10------|-----------------------|------14--
G-----------------|-9h10-----------------------12~--|--12h14----------------|----------
D-----------------|---------------------------------|-----------------------|----------
A-----------------|---------------------------------|-----------------------|----------
E-----------------|---------------------------------|-----------------------|----------

              
E14/15--12/13----12/13-------------------
B----14-------12-------10-12^--10--------
G---------------------------------12-10--
D----------------------------------------
A----------------------------------------
E----------------------------------------

Em  Bm               Bm A#m Am          Em  B7
Uoh-yoh-yoh-yoh-oh-oh       eh-eh-eh-eh-yeh

                 Em              Bm
Y [yo ya] estoy aquí borracho y loco

Bm A#m Am                   Em        B7
y mi corazón idiota siempre brillara

           Em               Bm
y yo te amaré, te amaré por siempre

Bm  A#m Am
nena no te peines en la cama

                  Em                B7
que los viajantes se van a atrasar?

               Em              Bm
Y yo ya estoy aquí borracho y loco

Bm A#m Am                  Em        B7
y mi corazón idiota siempre brillara

           Em               Bm
y yo te amaré, te amaré por siempre

Bm  A#m Am
nena no te peines en la cama

                  Em                
que los viajantes se van a atrasar?


       

e----------------------------------------------------------------------
B--7h8-7-----------------7h8-7-----------------------------------------
G--------9-7-9~----------------9-7-9~-----------------5----------7-----
D----------------9-9-0----------------9-9-0---------5---7~-----7---9~--
A----------------7-7-0-9--------------7-7-0-9---5h7--------7h9---------
E----------------------7--------------------7--------------------------

e--------------7-7-0--12---
B--8-7---------8-8-0--12---
G------9-7-9~--9-9-0--12---
D--------------9-9-0-------
A--------------7-7-0-------
E--------------7-7-0-------
Aviso: Este fichero es trabajo propio de su transcriptor y representa su interpretación personal de la canción. El material contenido en esta página es para exclusivo uso privado, por lo que se prohibe su reproducción o retransmisión, así como su uso para fines comerciales.

Comentarios en Facebook: