Elena, Enanitos Verdes (tablatura) (ver 2)

Autor: Anónimo | 33697 visualizaciones

intro:
   Cm      A#        Dm7
e-----------------------1--
b-4---4----3------1---1----
g---5--------3------2------  (en A# pueden intentarlo en Gm)
d--------------3-----------
a--------------------------
E-------------------------- x2

            A#                    Dm7
un dia como hoy se fue quedando en soledad   (e--1h3)se repite
         Cm
le prometio despues volver
        F
por la patria iba luchar
              A#
nunca le dijo adios
                Dm7
decir hasta la vuelta era mejor
       Cm
y asi finjiendo sonreir
         F
quedo mirandolo partir


   Cm      A#        Dm7
e-----------------------1--
b-4---4----3------1---1----
g---5--------3------2------
d--------------3-----------
a--------------------------
E--------------------------

          A#
elena le escribio
              Dm7
algunas cartas contesto
      Cm
que de leer nunca dejo
         F
cartas de guerra

cartas de amor

              A#
al frente fue a luchar
             Dm7
aquellas islas conquistar
         Cm
cuando la bala lo alcanzo
                F
el angel de la muerte se lo llevo

(Coro:)
  A#      Dm7       Gm
y ella no deja de sentir
       F     Cm
que un dia volvera
        F
solo queda esperar
  A#      Dm7       Gm
la guerra nunca la termino
     F        Cm
la tumba del dolor
             F           A#
siempre abierta esta, en su corazòn

( Solo )

e-------------------------------------------------------
b-3------1-3-1----3s5---3-5-3---5s6----5-6-5---6s8-8v---
g--3---3-------3------5-------5------5-------5----------
d---3---------------------------------------------------
a-------------------------------------------------------
E-------------------------------------------------------


e------------------------------------------------------
b---1-3-1---3--------------------------------------------
g-3-------3--------------------------------------------
d------------------------------------------------------
a------------------------------------------------------
E------------------------------------------------------
          A#
desnuda la ciudad
                 Dm7
buscando entre las calles va
     Cm
pasan los años y ella esta
            F
besando el viento mirando el mar
          A#                        Dm7
no quizo preguntar cuando volvieron los demas
           Cm
y si algun barco llega del sur
            F
su rostro brilla lleno de luz




(Coro:)
  A#      Dm7       Gm
elena no deja de sentir
       F     Cm
que un dia volvera
        F
solo queda esperar
  A#      Dm7       Gm
la guerra nunca la termino
     F        Cm
la tumba del dolor
             F           A#
siempre abierta esta, en su corazòn

e-------------------------------------------------------
b----3-5-3---5s6----5-6-5---6s8-8v----------------------
g--5-------5------5-------5-----------------------------
A-------------------------------------------------------
a-------------------------------------------------------
E-------------------------------------------------------


e------------------------------------------------------
b---1-3-1---3--------------------------------------------
g-3-------3--------------------------------------------
d------------------------------------------------------
a------------------------------------------------------
E------------------------------------------------------


!!!!!!!!!!!!!!!!!!!!!!!!!!!!!!!!!!!!!!!!!!
sale pues ahi va otra cancion del nuevo disco de
enanitos verdes (pescado original)
si desean cualquier solo de enanitos verdes
contactenme a elpollo89@hotmail.com fan numero 1 de
Felipe Staiti.. le dedico esta rola
a la banda drums

fer=guitarras
toño=bajos, voz
Dany (Bat-man)=bateria
Aviso: Este fichero es trabajo propio de su transcriptor y representa su interpretación personal de la canción. El material contenido en esta página es para exclusivo uso privado, por lo que se prohibe su reproducción o retransmisión, así como su uso para fines comerciales.
Más versiones de Elena, Enanitos Verdes
Elena
tablatura
Elena (ver 2)
tablatura
Descubre más canciones de Enanitos Verdes

Comentarios en Facebook: