Conciencia Contra Reloj, Enanitos Verdes (tablatura)

Autor: Anónimo | 18747 visualizaciones

bueno aquí les dejo el intro y el solo de conciencia contra relog
la rola esta en Gm haci que no hay problema saludos a todos
chequen nuestras rolas en www.youtube.com/megathekidz

E-----------------------------------------------------------
B-----------------------------------------------------------
G------3------5-----3------2—3vvv-------3-----5------3vvvv--
D---5------5------5-----5------------5------5------5--------
A-5-----5-------5-----5------------5------5-----5----------
E----------------------------------------------------------


simbología
h  hammer on        / slide
v  vibrato                x palt mute
b  bend                   wb wammy bar
t   tapping

SOLO   1:45
E---------------------------------------------------------------
B---------------------------3-----------------3--6/8-3b-3vvvvv--
G-------3--2----3--3h5vvv-----5--3-2---2-3--5-------------------
D----5-------5-----------------------5--------------------------
A-5-------------------------------------------------------------
E---------------------------------------------------------------

E-------------13h15vvvvv--18-18-18bbbb--
B-------15x-----------------------------
G----15x--------------------------------
D---------------------------------------
A---------------------------------------
E---------------------------------------

E-10h11p10-------------------------------
B----------13-10h11p10-------------------
G-----------------------12-10h12p10------
D----------------------------------------
A----------------------------------------
E----------------------------------------

E------------------------------------------
B------------------------------------------
G------------------------------------------
D---12-10h12p10-8-----8h10p8---------------
A-----------------10---------10-8-10-10vv--
E------------------------------------------

E----13-18p13-18p13----13-18p13-18p13-
B-15----------------15----------------
G-------------------------------------
D-------------------------------------
A-------------------------------------
E-------------------------------------

E----13-18p13-18p13--------------------------
B-15-----------------13/15vv-15/18v----------
G-----------------------------------15-15wb--
D--------------------------------------------
A--------------------------------------------
E--------------------------------------------

E------------------------------------------------------
B------t-------t-------t-------t-------t-------t-------
G---3--7-3h5p3-7-3h5p3-7-3h5p3-7-3h5p3-7-3h5p3-7-3h5p3-
D------------------------------------------------------
A------------------------------------------------------
E------------------------------------------------------

E--------------------------------------------
B-t-------t-------t-------t------------------
G-7-3h5p3-7-3h5p3-7-3h5p3-7-3h5p3--3-3wbwbwb-
D--------------------------------------------
A--------------------------------------------
E--------------------------------------------

espero y le haya gustado
por que creo que es 100% igual al de la canción
para cualquier comentario
Kobe_8_7@hotmail.com
saludos para la angostura donde el rock no existe ejejejje
Aviso: Este fichero es trabajo propio de su transcriptor y representa su interpretación personal de la canción. El material contenido en esta página es para exclusivo uso privado, por lo que se prohibe su reproducción o retransmisión, así como su uso para fines comerciales.
Más versiones de Conciencia Contra Reloj, Enanitos Verdes
Conciencia Contra Reloj
acordes
Conciencia Contra Reloj
tablatura
Descubre más canciones de Enanitos Verdes

Comentarios en Facebook: