Cada Vez Que Te Digo Adios, Enanitos Verdes (tablatura) (ver 2)

Autor: Anonimo | 24128 visualizaciones

Weno, ebn primer lugar saludar a mi gente del grupo BrEmEn rOcK,ya saben cualkier
solo me llaman al 458-6744.Ahora si, prosigamos.esta es una bonita cancion, pero se
q algunos han tenido problemas en el solo.Pues les tengo buenas noticias,
ese solo me lo se hasta dormido jejeje.Ahi les va pss.Espero q lo disfruten:

Entra la parte en la que dice:

...Siempre te esperaré... Uh!!!!!.Ahi es dond entra este pekeño solo.

           G                Em                      C
e-5s7-7-7--5-3-5s7v-/--10-8-7-8-7-3-5s7-5-3--/--10-8-7-8-7-3--10-8-7-8-7-3--/
b-------------------/------------------------/------------------------------/
g-------------------/------------------------/------------------------------/
d-------------------/------------------------/------------------------------/
a-------------------/------------------------/------------------------------/
E-------------------/------------------------/------------------------------/

      Am          D
e-----3-5-7-/8-7-5-5-3-3-/
b-3s5-------/------------/
g-----------/------------/
d-----------/------------/
a-----------/------------/
E-----------/------------/

     G                         Em               C         Am    D
e--------------2-3-5-3-5/-7-5-3-5-3-2-3-2-/-10^^-^8-7-8-/17^^-/19^^---
b------------3----------/-----------------/-------------/-----/-------
g--2-4-4-2h4------------/-----------------/-------------/-----/-------
d-----------------------/-----------------/-------------/-----/-------
a-----------------------/-----------------/-------------/-----/-------
E-----------------------/-----------------/-------------/-----/-------

Weno eso es todo, espero q lo saqn bien,cualquier duda o correcion m escriben pss.
Se despide su pata Cesar.
Viva el Rock!!!

Fuente original: LaCuerda
Colaborador original: César García Casanova [cdgc147@hotmail.com]
Aviso: Este fichero es trabajo propio de su transcriptor y representa su interpretación personal de la canción. El material contenido en esta página es para exclusivo uso privado, por lo que se prohibe su reproducción o retransmisión, así como su uso para fines comerciales.

Comentarios en Facebook: