Aún Sigo Cantando, Enanitos Verdes (bajo)

Autor: Anónimo | 14583 visualizaciones

Hola, ke tal espero ke les guste esta canción x yo pienso ke va dedicada
para akellos musikos ke desde niños se han esforzado toda su vida para
llegar ha ser grandes y pues también tiene letra muy bonita, espero ke
la disfruten…

Al principio de la canción todavía no hay bajo, solamente es el ritmo
de la guitarra…

Hasta la parte de “QUE LE HABRÁ PASADO A LA VIDA”….

G|-------------|-------------|-----------|---------------|
D|-------------|-------------|-----------|--------22—-2--|
A|-------------|---------5-55|-55--55----|---22-22--55---|
E|5--55--55--5-|55--55-5-----|-------5-55|55-------------|

Te acordas del flaco espinetta…

G|-------------|-------------|-----------|----------------|
D|-------------|-------------|-----------|-------22-------|
A|-------------|---------5-55|-55--55----|----55----------|
E|5--55--55--5-|55--55-5-----|-------5-55|-55-------55-55-|

Pero como han cambiado los tiempos..

G|--------------|-------------|------------|--------------------|
D|--------------|-------------|------------|----------22--------|
A|55--55--44--44|-------33--33|-3--2--22—55|-------55-----------|
E|--------------|22--22-------|------------|55--55-------55--55-|

Pero yo aún sigo cantando...

G|--------------|----------------|---------------|-------------|
D|--------------|----------------|---------------|-----22------|
A|55--55--44--44|--------44—44—4-|3--22--55------|55------55---|
E|--------------|22-3-4-4--------|----------55-55|---55--------|

Y ayer, quizás pensando…

G|-------------|-------------|-----------|----------------|
D|-------------|-------------|-----------|-------22-------|
A|-------------|---------5-55|-55--55----|----55----------|
E|5--55--55--5-|55--55-5-----|-------5-55|-55-------55-55-|

Espero que el tiempo ahora no borre…

G|--------------|----------------|---------------|-----------|
D|--------------|----------------|---------------|-----22----|
A|55--55--44--44|--------44—44—4-|3--22--55------|55------55-|
E|--------------|22-3-4-4--------|----------55-55|-----------|

Final..

G|--------------|----------------|---------------|
D|22-22---------|----------------|---------------|
A|------33--33--|55--55—1-1—1-1--|22--22—5-5s14--|
E|--------------|----------------|---------------|
Calificar esta versión:
Aviso: Este fichero es trabajo propio de su transcriptor y representa su interpretación personal de la canción. El material contenido en esta página es para exclusivo uso privado, por lo que se prohibe su reproducción o retransmisión, así como su uso para fines comerciales.
Más versiones de Aún Sigo Cantando, Enanitos Verdes
Aun Sigo Cantando
acordes
Aun Sigo Cantando (ver 2)
acordes
Aun Sigo Cantando
tablatura
Aun Sigo Cantando (ver 2)
tablatura
Aun Sigo Cantando (ver 3)
tablatura
Aún Sigo Cantando
bajo
Descubre más canciones de Enanitos Verdes