Tenemos Libertad, En Espiritu Y En Verdad (tablatura)

Autor: Anónimo | 40510 visualizaciones



Intro: Eb
e|-11-10-11-10-----------15-13-15-13-16-15-13-15-13--
B|--------------4-3-4-3--------------------------------
G|-----------------------------------------------------
D|-----------------------------------------------------
A|-----------------------------------------------------

Eb                                             Cm
Cuán gloriosa Esperanza la que podemos tener hoy
                                                    Eb
El Camino ha sido abierto por la Sangre que El vertió

(En el fondo de los versos hace esto)Eb5
e|----------------15----
B|-----4-3--4-3---13----
G|----------------------
D|----------------------
A|----------------------


Eb                                             Cm
El precioso Sacrificio donde justicia se cumplió
                                              Eb
quitando el peso del pecado y acercándonos a El

(En el fondo de los versos hace esto)Eb5
e|----------------15----
B|-----4-3--4-3---13----
G|----------------------
D|----------------------
A|----------------------


Fm5 (Gm5)             Cm
Nos despertaste a Tu Luz
                      Ab5
a la Vida que hay en Ti
                      Bb
a la Vida que hay en Ti


Ab5                  Eb5       Bb5       Ab5
En El tenemos Libertad en el Hijo de Dios
              Eb5 Bb5
tenemos libertad

Ab5                   Cm5     Eb5           Ab5
En El a Gracia nos llamó a gloria y redención
              Cm5 Bb5
tenemos libertad


Intro2: Eb
e|----15-13-15-13---
B|----16-15-16-15---
G|------------------
D|------------------
A|------------------

Intrumental:
e|------------15--13-15--13----------------------------
B|------------13--13-13--13----------------------------
G|-----------------------------------------------------
D|-----------------------------------------------------
A|-----------------------------------------------------
 Ab5
fin: Ab





Calificar esta versión:
Aviso: Este fichero es trabajo propio de su transcriptor y representa su interpretación personal de la canción. El material contenido en esta página es para exclusivo uso privado, por lo que se prohibe su reproducción o retransmisión, así como su uso para fines comerciales.
Más versiones de Tenemos Libertad, En Espiritu Y En Verdad
Tenemos Libertad
acordes
Tenemos Libertad
tablatura
Descubre más canciones de En Espiritu Y En Verdad