Te Doy Gloria, En Espiritu Y En Verdad (tablatura)

Autor: gersonp | 35874 visualizaciones

INTRO:
B|---------------|
G|--12-9---------|
D|-------12-10---|
A|---------------|
(esta intro yo la hago con Delay y Overdrive. y sale fresa, tienen que practicarla bastante por que sino uno se enreda a mitad de cancion por eso practiquenla bien)

PRE-CORO:
e|---------------------------------------------15p17-17-15-|
B|-13-15-16--15-13-12-13-15--15-13-12-13-12-13-------------|
G|---------------------------------------------------------|
(esta parte ya va sin el delay)

PUENTE:
e|--------------------15-12--------------------|
B|--13-12-------------------15-13-12-13-12-13--|
G|--------14-12--(X8)--------------------------|

Comentarios del colaborador: estas son las tablaturas de la guitarra en "te doy gloria" disculpen si hay errores espero les sirva... BENDICIONES!!!

Calificar esta versión:
Aviso: Este fichero es trabajo propio de su transcriptor y representa su interpretación personal de la canción. El material contenido en esta página es para exclusivo uso privado, por lo que se prohibe su reproducción o retransmisión, así como su uso para fines comerciales.
Más versiones de Te Doy Gloria, En Espiritu Y En Verdad
Te Doy Gloria
acordes
Te Doy Gloria
tablatura
Descubre más canciones de En Espiritu Y En Verdad