Fuente De Salvación, En Espiritu Y En Verdad (tablatura)

Autor: Anónimo | 26636 visualizaciones

intro ( 2 primeras de guitarra elec)Bm D A Em
e---10-10-10------------9-9-9---
b-------------10-10-10--------10-10-10-10-12-12-12-14-14-14-10-9---


la tercera es mas simple
e---10-10-10----9-9-9-----------------------------------------------
b---------------------10-10-10-10-10-10-10-12-12-12-14-14-14-10-9---

en la parte de vivimos para anunciar...........
es lo mismo que el intro

el instrumental de la electrica o solo: Bm D A Em
e---------5/7--7--9--7--9/10--12--14------------------
b-----------------------------------------------------
g-----------------------------------------------------

e---------5/7--7--9--7--9/10--9--14------------------
b-----------------------------------------------------
g-----------------------------------------------------

hice mi mejor esfuerzo, espero que les guste.
Dios les bendiga. No cambio por nada a rocactiva
si no es por Cristo.
Calificar esta versión:
Aviso: Este fichero es trabajo propio de su transcriptor y representa su interpretación personal de la canción. El material contenido en esta página es para exclusivo uso privado, por lo que se prohibe su reproducción o retransmisión, así como su uso para fines comerciales.
Más versiones de Fuente De Salvación, En Espiritu Y En Verdad
Fuente De Salvación
acordes
Fuente De Salvación
tablatura
Fuente De Salvación (ver 2)
tablatura
Descubre más canciones de En Espiritu Y En Verdad