En Tu Luz, En Espiritu Y En Verdad (bajo)

Autor: Anónimo | 40328 visualizaciones

Saludos es mi 2da colaboracion y pues esta vez saque la cancion
escuchandola en un cel sony xD

pues se oye bien y tal vez no este al 100% atinada pero puedo
decir con certeza que es muy parecida de un 100% esta un 95%

jojo pues ah les va y que la disfruten tocando pues es una rola
muy chida jojojo xD Dios los Bendiga!

En tu Luz
Bajo Estándar: E, A, D, G

/:Slide (Deslizar o Deslice)

Intro: x2 (la primera vez es con las cuerdas apagadas)
E|---------------------------
A|-7(8)-2(8)-0(8)-4(4)-2(4)/7
D|---------------------------
G|---------------------------

Verso 1: (comienza hasta que dice “de nuestro alrededor……”)
E|--------------------------------------
A|-0/4-4-4-4-4-4-4-4-2-2-2-2-2-2-2-2-2/7
D|--------------------------------------
G|--------------------------------------

Verso 2: (se termina hasta que dice “Jesús”)
E|------------------------------------
A|-0/4-4-4-4-4-4-4-4-2-2-2-2-2-2-2-2-2
D|------------------------------------
G|------------------------------------

Pre-Coro: x2
E|------------------------------
A|-6-4-2-0-6-4-2-0-0-0-0-0-0-0-0
D|------------------------------
G|------------------------------

Coro: x2 (la segunda vez no se toca el deslice a 7,
se corta directo de 4 a 2)
E|--------------------------------
A|-7(8)-2(8)-0(8)-4(4)/7-7/2-2-2-2
D|--------------------------------
G|--------------------------------

Intro:
E|---------------------------
A|-7(8)-2(8)-0(8)-4(4)-2(2)/7
D|---------------------------
G|---------------------------

Verso 1: (comienza hasta que dice “de nuestro alrededor……”)
E|--------------------------------------
A|-0/4-4-4-4-4-4-4-4-2-2-2-2-2-2-2-2-2/7
D|--------------------------------------
G|--------------------------------------

Verso 2: (se termina hasta que dice “Jesús”)
E|------------------------------------
A|-0/4-4-4-4-4-4-4-4-2-2-2-2-2-2-2-2-2
D|------------------------------------
G|------------------------------------

Pre-Coro: x2
E|-----------------------------------
A|-6-4-2-0-6-4-2-12-12-12-12-12-12-12
D|-----------------------------------
G|-----------------------------------

Coro: x2
E|--------------------------------
A|-7(8)-2(8)-0(8)-4(4)/7-7/2-2-2-2
D|--------------------------------
G|--------------------------------

Puente: x3 (el bajo se junta hasta la 2 con volumen
bajo y en la 3 se toca normal)
E|----------------------------------------
A|-4-4-4-4-4-4-2-2-2-2-2-2-0-0-0-0-0-0-0/7
D|----------------------------------------
G|----------------------------------------

Coro 3: (el inicio toca la guitarra, el bajo inicia hasta
la segunda vez pero en el traste 2)
E|----------------------------------------------------
A|-2-2-2-2-2-2-2-2-0-0-0-0-0-0-0-0-4-4-4-4/7-7/2-2-2-2
D|----------------------------------------------------
G|----------------------------------------------------

E|-------------------------------
A|-7(8)-2(8)-0(8)-4-4-4-4-2-2-2-2
D|-------------------------------
G|-------------------------------

Intro 1 vez mas

Final:
E|-----------------------
A|-9-9-7-7-11-11-6-6-6-7-
D|-----------------------
G|-----------------------


espero y les guste pues este grupo toca muy chido jojojo
espero y pues no se enojen pues de nuevo por motivos de
la cuerda.net tengo que recortar las tabs pero si las quieren
bien como van jojojo un mail a mis mails :P

no me gusta escribir las tabs asi pero pues la cuerda dice que
menos de 75 caracteres por linea asi que pues disculpen las
molestias

mis correos para dudas o sugerencias:
hotmail: josep_nesz@hotmail.com
yahoo: clowd_nesz@yahoo.com.mx
gmail: clowd.nesz@gmail.com
Calificar esta versión:
Aviso: Este fichero es trabajo propio de su transcriptor y representa su interpretación personal de la canción. El material contenido en esta página es para exclusivo uso privado, por lo que se prohibe su reproducción o retransmisión, así como su uso para fines comerciales.
Más versiones de En Tu Luz, En Espiritu Y En Verdad
En Tu Luz
acordes
En Tu Luz
tablatura
En Tu Luz (ver 2)
tablatura
En Tu Luz
bajo
Descubre más canciones de En Espiritu Y En Verdad