Desde Mi Interior, En Espiritu Y En Verdad (tablatura)

Autor: Anónimo | 45834 visualizaciones

ojala les guste

intro : Am-C-G
e|---------------12p--------12-----------------|
B|---------13------------13----13-15-12--------|
G|--12-14h----14------12----------------12-----|
D|---------------------------------------------|
A|---------------------------------------------|
E|---------------------------------------------|
     F                    C        G
 mil veces te falle, mas tu fuiste fiel
            F               C        G
 tu gracia me levanto, me basta tu amor
       Am       F                 C    G
 Dios eterno tu luz por siempre brillara
       Am       F           C     G
 y tu gloria incomparable sin final


           F           C      G
 señor tu voluntad permanecera
          F                C      G
 en ti me quiero perder en adoracion
       Am       F                 C    G
 Dios eterno tu luz por siempre brillara
       Am       F           C     G
 y tu gloria incomparable sin final


F             Am                  G
 de mi corazon te doy el control
                Dm
 consume todo mi interior, Dios
 F                 Am
 justicia y amor me abrazan señor
             Dm             F
 te amo desde mi interior


         Am        F            C       G
//Dios eterno tu luz por siempre brillara
        Am       F          C     G
 y tu gloria incomparable sin final
       C          F         G      Am
 el clamor de mi ser es contigo estar
       F        G          F     G      F
 desde mi interior mi alma clamara// Dios

--SOLO--
E-5-/-8----8----8----8----8----8----8----8--|
B-7-/-10---10---10---10---10---10---10---10-|
G-------------------------------------------|
D-------------------------------------------|
A-------------------------------------------|
E-------------------------------------------|

E--8--8--8--8--8--8--8--12--12--12--12--12--12--12--12-|
B--8--8--8--8--10-10-10-13--13--13--13--13--13--13--13-|
G------------------------------------------------------|
D------------------------------------------------------|
A------------------------------------------------------|
E------------------------------------------------------|

E--13--13--13--13--12--12--12--12-|
B--13--13--13--13--13--13--13--13-|
G---------------------------------|
D---------------------------------|
A---------------------------------|
E---------------------------------|

E------------------------------------------------------------------|
B--13--12--10--12----13--12--10--10--12-------10---10--10-10-10-10-|
G-----------------10--------------------10--9----7-----7--7--7--7--|
D------------------------------------------------------------------|
A------------------------------------------------------------------|
E------------------------------------------------------------------|

E--12--12--10--10--8---8---15--15--15--15--15--15--15-]
B--13--13--12--12--10--10--13--13--13--13--13--13--13-|
G-----------------------------------------------------|
D-----------------------------------------------------|
A-----------------------------------------------------|
E-----------------------------------------------------|

E-----17----17----17---17-----19-|
B--15----15----15---15-----17----|
G--------------------------------|
D--------------------------------|
A--------------------------------|
E--------------------------------|


 ESO ES TODO ESPERO Y LES GUSTE Y QUE DIOS LOS LLENE DE BENDICIONES
 [ AKI STEVE MEJORANDO TU TRABAJO ]  SW!!!
Calificar esta versión:
Aviso: Este fichero es trabajo propio de su transcriptor y representa su interpretación personal de la canción. El material contenido en esta página es para exclusivo uso privado, por lo que se prohibe su reproducción o retransmisión, así como su uso para fines comerciales.
Más versiones de Desde Mi Interior, En Espiritu Y En Verdad
Desde Mi Interior
acordes
Desde Mi Interior
tablatura
Descubre más canciones de En Espiritu Y En Verdad