Cuan Grande Es Dios, En Espiritu Y En Verdad (tablatura)

Autor: Anónimo | 28818 visualizaciones

Arreglo en el principio
                                     En "la tierra alegre está.."
e|-8-8-8-8-8-8-8-8-----------------|------10-12----|
B|-----------------8-8-8-8-8-8-8-8-|------------10-|


Melodía en el verso
  C                     Am                    F (x2)
e|---------------------|---------------------|--------------|
B|----13---------------|----13---------------|--------------|
G|-12-----12-12-----12-|-12-----12-12-----12-|-4-5-4-5-4--7-|
D|---------------14----|---------------14----|--------------|

Coro (aplica para el solo de flauta en 8:00, pero no
      se puede más agudo)

e|------------------12-----------------------|
B|----13-----15-13-----15-15-13----13--------|
G|-12-----12--------------------14-----12-12-|

e|-----------12-----------------------|
B|----15-13-----15-15-13----13--------|
G|-12--------------------14-----12-12-|

e|----------|-15-12-------|
B|-13-13s15-|-------15-13-|
G|----------|-------------|


Cualquier duda o sugerencia de canciones que tengan

saviour_king@msn.com

DLB
Calificar esta versión:
Aviso: Este fichero es trabajo propio de su transcriptor y representa su interpretación personal de la canción. El material contenido en esta página es para exclusivo uso privado, por lo que se prohibe su reproducción o retransmisión, así como su uso para fines comerciales.
Más versiones de Cuan Grande Es Dios, En Espiritu Y En Verdad
Cuan Grande Es Dios
acordes
Cuan Grande Es Dios (ver 2)
acordes
Cuan Grande Es Dios
tablatura
Cuan Grande Es Dios
teclado
Descubre más canciones de En Espiritu Y En Verdad