Difícil, El Tri (tablatura)

Autor: Anónimo | 22599 visualizaciones

 h  - hammer on
 p  - pull off
 B  - bend
 bb - bend 1/4
 ~  - vibrato
 

 "Difícil"
 El Tri
 21 AÑOS DESPUÉS
 

INTRO: C-E7-F-Fm  C-Am-Dm-G-C-F-C


C                              E7
 La vida es como un juego de ajedrez
F                        Fm
 todos le quieren hacer jaque al rey 
           C     Am
 pero es difícil,
   Dm          G    C      F-C
 difícil la primera vez.


                      E7 
 Ya estando arriba se ve muy fácil
F                     Fm
 pero la neta no cualquiera la hace 
              C    Am
 porque es difícil,
    Dm         G       C    F-C
 difícil de poderla hacer.


F                        C 
 Si quieres llegar a la mesa puesta
  F                  C
 nadie te la va a poner 
F                    C   Am     D7
 lo que no hagas por ti mismo 
                        G
 nunca nadie lo va a hacer.


C                               E7
 El chiste no es llegar hasta arriba
F                  Fm
 sino quedarse ahí toda la vida
           C     Am
 pero es difícil,
    Dm      G      C           
 difícil poder llegar.

 
   SOLO:
 E|-------------|--------------------------|-15-15-12-----|----------|
 B|-------------|-------13-13bb----13-17~~-|----------13~-|-------13-|
 G|-9-9~~-7-9~--|-12-14---------14---------|--------------|-12-14----|
 D|-------------|--------------------------|--------------|----------|
 A|-------------|--------------------------|--------------|----------|
 E|-------------|--------------------------|--------------|----------|


 E|-------------------|----------5-----------------------------------|
 B|-15b-15b-15bp13-13-|------------8-5-------------------------------|
 G|----------------14-|-----5-7b-------7-5~~-------------------------|
 D|-------------------|-5h7------------------------------------------|
 A|-------------------|----------------------------------------------|
 E|-------------------|----------------------------------------------|


 E|------------------------------------------------------------------|
 B|------------------------------------------------------------------|
 G|-7-5---5----------------------------------------------------------|
 D|-----7---7-5-7-5---5----------------------------------------------|
 A|-----------------7---7-5-7-5-3-5-3---3~~--------------------------|
 E|-----------------------------------5------------------------------|

  
 F                       C
  El hambre es gruesa y no perdona
    F              C
  raza o nacionalidad 
    F                C    Am
  coge parejo sin importarle
    D7            G
  color, sexo o edad.


C                         E7
  Quieres quedar muy bien con tu chava
 F                        Fm
  pero no tienes pa' comprarle nada 
               C    Am
  y ella es difícil,
   Dm          G    C   A7
  difícil de convencer,
             C    Am
  ella es difícil,
   Dm          G    C    A7
  difícil de complacer,
            C     Am
  la veo difícil,
     Dm            G       C     F-C
  difícil que la puedas hacer.
Calificar esta versión:
Aviso: Este fichero es trabajo propio de su transcriptor y representa su interpretación personal de la canción. El material contenido en esta página es para exclusivo uso privado, por lo que se prohibe su reproducción o retransmisión, así como su uso para fines comerciales.
Más versiones de Difícil, El Tri
Dificil
acordes
Dificil (ver 2)
acordes
Dificil (ver 3)
acordes
Difícil
tablatura
Descubre más canciones de El Tri