A.d.o., El Tri (tablatura)

Autor: Vipers | 40541 visualizaciones

creo q de esta cancion es.... de todos modos suena bien
1--------------------------
2------------------------
3------------------------
4------------------------
5---1-2-3--3-2-1---------------
6---0-0-0--0--0--0-------------

1------------------------
2------------------------
3------------------------
4---1-2-3---3-2-1--------------
5---0-0-0---0-0-0--------------
6-------------------------



tocando las 2 cuerdas al mismo tiempo ritmo(rock)

Saludos a toda la gente bonita de Celaya....
Calificar esta versión:
Aviso: Este fichero es trabajo propio de su transcriptor y representa su interpretación personal de la canción. El material contenido en esta página es para exclusivo uso privado, por lo que se prohibe su reproducción o retransmisión, así como su uso para fines comerciales.
Más versiones de A.d.o., El Tri
A.d.o.
acordes
A.d.o.
tablatura
A.d.o. (ver 2)
tablatura
A.d.o.
bajo
A.d.o. (ver 2)
bajo
Descubre más canciones de El Tri