Sacachispas, El Peru Criollo (tablatura)

Autor: Anónimo | 36782 visualizaciones

intro: D-A7 RASGUEO DE MARINERA

Primer  parrafo:
                   A7                    D
La jarana va a empezar al golpe de un buen cajon

--------0-2-3---0-3-2-0-5-3-2-------------------
---0-2-3----------------------------------------
--2---------------------------------------------
------------------------------------------------
------------------------------------------------
------------------------------------------------

                   A7                       D
salgan todos a bailar y ajustense el pantalon

--------0-2-3---0-3-2-0-5-3-2-------------------
---0-2-3----------------------------------------
--2---------------------------------------------
------------------------------------------------
------------------------------------------------
------------------------------------------------

PRIMER PARRAFO SE REPITE 2 VECES

SEGUNDO PARRAFO

                        A7                                   D
saca cholo chispas del suelo,asi agitando el blanco pañuelo no

-------5---5---9-7-9-7--------------7-5-7-5----
-----7---7---7----------5-7-8-5-8-5------------
---7-------------------------------------------
-----------------------------------------------
-----------------------------------------------
-----------------------------------------------

SEGUNDO PARAFO SE REPITE 2 VECES

TERCER PARRAFO

                  A7                          D
Marinera de mi tierra como tu no hay otra igual


5-5-5-5-7---5---------0-5-3-2
----------7---8-----2--------
----------------2-2----------
-----------------------------
-----------------------------
-----------------------------

                           A7                      D
que en costa, montaña y sierra es baile tradicional.

5-5-5-5-7---5---------0-5-3-2
----------7---8-----2--------
----------------2-2----------
-----------------------------
-----------------------------
-----------------------------

TERCER PARRAFO SE REPITE 2 VECES

SEGUNDO PARRAFO

                        A7                                   D
saca cholo chispas del suelo,asi agitando el blanco pañuelo no

-------5---5---9-7-9-7--------------7-5-7-5----
-----7---7---7----------5-7-8-5-8-5------------
---7-------------------------------------------
-----------------------------------------------
-----------------------------------------------
-----------------------------------------------

SEGUNDO PARAFO SE REPITE 2 VECES

    D7           G                 A7              D      A7 D
Marinera de mi tierra que se baila hasta en el cielo...

--------0-2-3-3---7-7-5-5-7-5--3--2---------------------
3-3-3-3-------------------------------------------------
--------------------------------------------------------
--------------------------------------------------------
--------------------------------------------------------
--------------------------------------------------------

LA CANCION SE VUELVE A REPETIR
Calificar esta versión:
Aviso: Este fichero es trabajo propio de su transcriptor y representa su interpretación personal de la canción. El material contenido en esta página es para exclusivo uso privado, por lo que se prohibe su reproducción o retransmisión, así como su uso para fines comerciales.