Nada Soy, El Peru Criollo (tablatura)

Autor: Anónimo | 26321 visualizaciones

1---------10--12-13---  1------5---7-8----
2-------10---------11-  2-----5--------7--
3-----10--------------  3----5------------
4---12----------------  4---7-------------
5--12-----------------  5--7--------------
6---------------------  6-----------------

1----------7-7-7--10-10-10--8--------     Todo esto
2----9-9-9-7-7-7--12-12-12--10-------     se vuelve a repetir
3-9--9-9-9---------------------------     2 veces y en la
4------------------------------------     ultima se toca
5------------------------------------     lo siguiente
6------------------------------------

1---------8--------
2-------10---------
3-----9------------
4-9-10-------------
5------------------
6------------------

esta cancion es lo maximo lo malo es que nadie la pone como es
que pena las canciones de los kipus (por seacaso esta cancion es
de un grupo PERUANO llamado los kipus) ..... alguna consulta a mi
a mi correo ok?
Calificar esta versión:
Aviso: Este fichero es trabajo propio de su transcriptor y representa su interpretación personal de la canción. El material contenido en esta página es para exclusivo uso privado, por lo que se prohibe su reproducción o retransmisión, así como su uso para fines comerciales.