Anita Ven, El Peru Criollo (tablatura)

Autor: Anónimo | 33010 visualizaciones

Introducción:

E|--10-10-9-10-7-------7-9-7-|---7-9-7|---7-10-7—--------
B|---------------8---8-------|--8-----|--7---------------
G|-----------------9---------|9-------|7-----------------
D|---------------------------|--------|------------------
A|---------------------------|--------|------------------
E|---------------------------|--------|------------------


E|--10-10-9-10-12-10-9----------9-------------------------
B|---------------------12-11-12---12-11----------10-9-8-7-
G|--------------------------------------11-10-11----------
D|--------------------------------------------------------
A|--------------------------------------------------------
E|--------------------------------------------------------


E|--10-10-9-10-7-------7-9-7-|---7-9-7|---7-10-7—--------
B|---------------8---8-------|--8-----|--7---------------
G|-----------------9---------|9-------|7-----------------
D|---------------------------|--------|------------------
A|---------------------------|--------|------------------
E|---------------------------|--------|------------------


E|--10-10-9-10-12-10-9----------9------------------------
B|---------------------12-11-12---12-11------------------
G|--------------------------------------12-11-9----------
D|----------------------------------------------12-11-9--
A|-------------------------------------------------------
E|-------------------------------------------------------


E|---------------------------7-7-7-7-|-7------------------
B|------------------7-7-7-7----------|-7------------------
G|---------7-7-7-7-------------------|-7------------------
D|-9-9-9-9---------------------------|-9------------------
A|-----------------------------------|--------------------
E|-----------------------------------|--------------------

Aquí viene la canción:

E|---2-2-2-2-1-1-0-0--------|----3-3-3-3-2-2-3-5-3--------
B|-------------------3-3----|-----------------------------
G|--------------------------|-s4--------------------------
D|-4------------------------|-----------------------------
A|--------------------------|-----------------------------
E|--------------------------|-----------------------------


E|-7-5-2-2---------|-3-2------------|--2-1----------------
B|---------5-5-3-2-|-----3-3-2--2-3-|-----2-2-2-3-2s5-3-2-
G|-----------------|----------4-----|---------------------
D|-----------------|----------------|---------------------
A|-----------------|----------------|---------------------
E|-----------------|----------------|---------------------


E|---2-2-2-2-1-1-0-0--------|----3-3-3-3-2-2-3-5-3--------
B|-------------------3-3----|-----------------------------
G|--------------------------|-s4--------------------------
D|-4------------------------|-----------------------------
A|--------------------------|-----------------------------
E|--------------------------|-----------------------------


E|-7-5-2-2---------|-3-2------------|--2-1----------------
B|---------5-5-3-2-|-----3-3-2--2-3-|-----2-2-2-3-2-4-3-4-
G|-----------------|----------4-----|---------------------
D|-----------------|----------------|---------------------
A|-----------------|----------------|---------------------
E|-----------------|----------------|---------------------


E|-5-4-5-2----|-5-4-5-7-5-4-5-4-5-2-|-5-4-5-7-5-4-5-4-5-6-
B|------------|---------------------|---------------------
G|------------|---------------------|---------------------
D|------------|---------------------|---------------------
A|------------|---------------------|---------------------
E|------------|---------------------|---------------------


E|-6-9-6----------------|-----------
B|-------7-7-6-7-10-8-7-|-----------
G|----------------------|-----------
D|----------------------|-----------
A|----------------------|-----------
E|----------------------|-----------


E|-5-4-5-2----|-5-4-5-7-5-4-5-4-5-2-|-5-4-5-7-5-4-5-4-5-6-
B|------------|---------------------|---------------------
G|------------|---------------------|---------------------
D|------------|---------------------|---------------------
A|------------|---------------------|---------------------
E|------------|---------------------|---------------------


E|-6-9-6---------10-9-7-|-6-7-------
B|-------7-7-6-7--------|-7-7-------
G|----------------------|-6-7-------
Calificar esta versión:
Aviso: Este fichero es trabajo propio de su transcriptor y representa su interpretación personal de la canción. El material contenido en esta página es para exclusivo uso privado, por lo que se prohibe su reproducción o retransmisión, así como su uso para fines comerciales.