10 Millones, El Otro Yo (tablatura) (ver 2)

Autor: Anónimo | 15075 visualizaciones



Aca esta la misma canción, pero corregida. 
Ya saben, Herrar es Umano

RIFF 1

e---------------------------------
B-2--3-2-2--3-2-2--3-2--5-5--3-2--
G-2--2-2-2--2-2-2--2-2--4-4--4-2--
D---------------------------------
A---------------------------------
E---------------------------------

O esta versión mas facil

e---------------------------------
B---------------------------------
G---------------------------------
D---------------------------------
A--4--5-4-4--5-4-4--5-4-7-7--5-4--
E---------------------------------

RIFF 1

e------------------------------
B-2--3-2-2--2--2--3-2-2--3--5--
G-2--2-2-2--2--2--2-2-2--2--4--
D------------------------------
A------------------------------
E------------------------------

O

e------------------------------
B------------------------------
G------------------------------
D------------------------------
A--4--5-4-4--5---4--5-4-4--5-7-
E------------------------------

SOLO
e------------------------------10----10----10----------------------------------------------
B-----12----12----12------10------10----10----10---------10---10---10----------------------
G-11-----11----11----11-----------------------------9-9-----9----9-----------11---11---11--
D-----------------------------------------------------------------------9-9-----9----9-----
A------------------------------------------------------------------------------------------
E------------------------------------------------------------------------------------------

RIFF 2
e-----------------------
B-----------------------
G-6/-7-7/-6/-7-7/-6/-7--
D-6/-7-7/-6/-7-7/-6/-7--
A-4/-5-5/-4/-5-5/-4/-5--
E-----------------------

RIFF 3
e------------------------------------------------------------------
B------------------------------------------------------------------
G------------------------------------------------------------------
D----------4-----------------------------------4-------------------
A-4--5--7-----7-7---4--5--7-----------4--5--7-----7-7--4--5--7-----
E----------------------------7--5-5-----------------------------5--

RIFF 1 (X8)

(Sin Tocar)
ABRO LOS OJOS Y ESCUCHO
QUE ESTOY CREYENDO
SI NO CREO
MUERO, MUERO

D5                   E5
10.000.000 DE VECES
D5                   E5
10.000.000 DE VECES
D5
NO ME TRAICIONES
NO ME TRAICIONES
                B5
NO ME TRAICIONE-ES

RIFF 1 (X4)

(Sin Tocar)
ABRO LOS OJOS
VEO TUS OJOS
NO HACEN FALTA
PALABRAS, PALABRAS

D5       		  E5
NI 1.000.000 DE DURAZNOS
D5			  E5
D5
NI 1.000.000 DE DURAZNOS
D5			     B5
NI MIS CANCIONES, NI DORMIR
D5		E5
VAN A SALVARME
D5	     B5  C#5
VAN A SALVARME - E

RIFF 1

SOLO

RIFF 2 (X2)

D5       		  E5
NI 1.000.000 DE DURAZNOS
D5			  E5
D5
NI 1.000.000 DE DURAZNOS
D5			     B5
NI MIS CANCIONES, NI DORMIR
D5		E5
VAN A SALVARME
D5	     B5  C#5
VAN A SALVARME - E

RIFF 1 (X2)

RIFF 3

Referencias:
/ = Deslizar hasta la cuerda indicada (Slide)
b = Estirar a cuerda hasta cnseguir el sonido indicado (Bending)
x = Tocar la nota anterior apagada (Palm Muted)



Eso es todo, para comentarios, pedidos, puteadas, etc. 
mandenmen un mail a neotokio3@yahoo.com

AGUANTE EL OTRO YO!!!!
LA CUMBIA ES UNA MIERDA!!!!

Fuente original: LaCuerda
Colaborador original: Martin Vecchio [neotokio3@yahoo.com]





Calificar esta versión:
Aviso: Este fichero es trabajo propio de su transcriptor y representa su interpretación personal de la canción. El material contenido en esta página es para exclusivo uso privado, por lo que se prohibe su reproducción o retransmisión, así como su uso para fines comerciales.
Más versiones de 10 Millones, El Otro Yo
10 Millones
tablatura
10 Millones (ver 2)
tablatura
10 Millones (ver 3)
tablatura
10 Millones
bajo
Descubre más canciones de El Otro Yo