Te Hago El Amor, El Original (tablatura) (ver 2)

Autor: Anónimo | 43292 visualizaciones



aka el punteoo....

6/---------------------------------------------------------
5/---------------------------------------------------------
4/--5---7---8----------------------------------------------
3/--------------6--7---------------------------------------
2/--------------------7---8-------11-11-11-11-11-------11--
1/-----------------------------------------------11-10-----


6/---------------------------------------------------------
5/---------------------------------------------------------
4/---------------------------------------------------------
3/---------------------------------------------------------
2/-8--10--11-11/13-11-------11-11-13----11-----------------
1/--------------------11-10--------------------------------


6/---------------------------------------------------------
5/---------------------------------------------------------
4/--5---7---8----------------------------------------------
3/--------------6--7---------------------------------------
2/--------------------7---8-------11-11-11-11-11-------11--
1/-----------------------------------------------11-10-----


6/---------------------------------------------------------
5/---------------------------------------------------------
4/---------------------------------------------------------
3/---------------------------------------------------------
2/-8--10--11-11/13-11-------11-11-13----11-----------------
1/--------------------11-10--------------------------------

SOLm
A ti te gusta como yo,

te hago el amor,
RE#                               FA
tu quieres yo quiero asi que dale vamosnos
SOLm
A ti te gusta como yo te hago el amor
RE#                                FA
tu quieres, yo quiero asi que dale vamosnos

SOLm
Yo quiero tu cuerpo saber que fui el primero en hacerte el amor,
          RE#                                            FA
sabes que soy cincero dame un poco de calor mi amor dale vente nena

SOLm
yo quiero besarte y poco a poco calentarte
RE#
no seas asi no te hagas la dificil que mi amor
FA
quiero entregarte





Calificar esta versión:
Aviso: Este fichero es trabajo propio de su transcriptor y representa su interpretación personal de la canción. El material contenido en esta página es para exclusivo uso privado, por lo que se prohibe su reproducción o retransmisión, así como su uso para fines comerciales.
Más versiones de Te Hago El Amor, El Original
Te Hago El Amor
tablatura
Te Hago El Amor (ver 2)
tablatura
Descubre más canciones de El Original