El No Lo Mato, El Haragan (tablatura)

Autor: odilon | 42941 visualizaciones



Haragan – El no lo mato

Intro dos veces    
 
  
e.------------------
B.-----2------------
G.------------------
D.------------------
A.-----0------------
E.------------------


       
e.-------4---4--------
B.------0-------------
G.-----4--------------
D.----3---------------
A.---4----------------
E.--0-----------------


       
e.-----2-----2------2-----
B.-------2------2-----2---
G.---------2------2-----2-
D.------------------------
A.------------------------
E.-----2------------------

   
e.-----------0--------
B.---------0--0-------
G.-------1------------
D.-----2--------------
A.---2----------------
E.-0------------------







Calificar esta versión:
Aviso: Este fichero es trabajo propio de su transcriptor y representa su interpretación personal de la canción. El material contenido en esta página es para exclusivo uso privado, por lo que se prohibe su reproducción o retransmisión, así como su uso para fines comerciales.
Más versiones de El No Lo Mato, El Haragan
El No Lo Mato
acordes
El No Lo Mato
tablatura
El No Lo Mato (ver 2)
tablatura
Descubre más canciones de El Haragan