A Mí Que Me Importa, El Dipy (tablatura)

Autor: Anónimo | 31088 visualizaciones



bueno soy nuevo en estoy y como mi primer tema
les traigo a mi que me importa
de el dipy solo sigan los tiempos se daran cuenta
de k les saldra bn pues xo lo sake
asi espero k os guste


intro

e ------------------------|
B ------------------------|
G -6-6-6-5-3-1-0-1-3/5----|
D ------------------------|
A ------------------------|
E ------------------------|

e ----------10-10-10-8-8-7-----------|
B --------8----------------8---------|
G ------9--------------------7/5-4---|
D -5-10----------------------------5-|
A -----------------------------------|
E -----------------------------------|

e -----------------------------------|
B --------8-7-8/10-10-10/11----------|
G -------7---------------------------|
D -5-7-8-----------------------------|
A -----------------------------------|
E -----------------------------------|

e -10-10-10-10-10-10-10-10-10-8-8-8-6-6-6-5-----|
B ------------------------------------------6---|
G --------------------------------------------5-|
D ----------------------------------------------|
A ----------------------------------------------|
E ----------------------------------------------|

e ------------------8--10-10/11--10-10-8---------------|
B ---------6/8----9----------------------8P10-8--------|
G -------5-----10-------------------------------10-9-7-|
D ---5-6-----------------------------------------------|
A -3---------------------------------------------------|
E -----------------------------------------------------|

e -----------------7-8-9-10----8-7---7---7/8---8---10---12---12/15-|
B ----------8-9-10-----------8-----8---8-----8---8----8----8-------|
G -6-7-9-10--------------------------------------------------------|
D -----------------------------------------------------------------|
A -----------------------------------------------------------------|
E -----------------------------------------------------------------|

 C
que no puedes vivir sin mi
          G
que mi olvido te sabe a ayer
           Am                 F
que me extrañas y sientas nostalgia
                 Dm
cada vez que mi voz
                   F
dentro de una cancion
       G
te recuerda a mi amor
        C
que te duele no estar aqui
            G
que arrepentida estas de tu error
         Am                F
que valdria la pena intentar
                     Dm
que te duele estar sola
                   F
que el que ama perdona
         G
que no puedes con la pena
             Am               G
y donde estabas cuando yo sufria
              Am             C
cuando me ahogaba la melancolía
        Am           Dm
yo tambien senti morirme
      F                   G
y ya no encuentras la salida
                 C
y a mi que me importa
                        G
cuando te fuiste yo tambien sufria
                 Am
me desangraba a gotas
               F
se escapo mi vida
              Dm          G
y solo cure mis heridas
                 C
y a mi que me importa
                         G
no me interesa saber de tus derrotas
                    Am
yo estoy mejor sin Ti
                   F
tu estas peor sin mi
                Dm      G
y si no eres feliz
               C
a mi que me importa
             Am               G
y donde estabas cuando yo sufria
              Am             C
cuando me ahogaba la melancolia
        Am           Dm
yo tambien senti morirme
      F                   G
y ya no encuentras la salida
                 C
y a mi que me importa
                        G
cuando te fuiste yo tambien sufria
                 Am
me desangraba a gotas
               F
se escapo mi vida
              Dm          G
y solo cure mis heridas
                 C
y a mi que me importa
                         G
no me interesa saber de tus derrotas
                    Am
yo estoy mejor sin ti
                   F
tu estas peor sin mi
                Dm      G
y si no eres feliz
               C
a mi que me importa.


no se por k razon kieren esta cancion
pero si es por la k me imagino sean bn penkas
eh cuando la chica a la que se la kieren
cantar para aserla enojar se aserque pesquen
su guitarra y agan el punteo y cuando ella
les este por hablar o les ponga su mano en
la guitarra empiezan a cantar y si es para
darsela aalguen bn xo xa ise las dos ejejeje
ah i no olviden invitar a facebook :P
http://www.facebook.com/zeikrokreos





Calificar esta versión:
Aviso: Este fichero es trabajo propio de su transcriptor y representa su interpretación personal de la canción. El material contenido en esta página es para exclusivo uso privado, por lo que se prohibe su reproducción o retransmisión, así como su uso para fines comerciales.
Más versiones de A Mí Que Me Importa, El Dipy
A Mi Que Me Importa
acordes
A Mi Que Me Importa (ver 2)
acordes
A Mí Que Me Importa
tablatura
Descubre más canciones de El Dipy