Cuando Sea Grande, El Cuarteto De Nos (acordes)

Autor: Diegofm | 29253 visualizaciones

abmdg


Hola a todos, esta versión la saque inmediatamente despues de escuchar la cancion pues me gusto mucho....
espero les guste....y arriba el cuarteto...


G                D
No quiero quejarme de oreja en oreja
A                Bm
Fijarme si quien me aventaja se aleja 
G                D
Negar el reflejo que dejo en mi espejo 
A                Bm
Ni alojar el rencor entre ceja y ceja 


G                D
No quiero guardar tantos secretos 
A                Bm
Ni estar enfrentado en un cuadro grotesco 
G                D
Como los Montesco y los Capuleto 
A                Bm
No quiero a tu edad quedar obsoleto 


G                D
Ni perder el vigor ni decir sin rigor 
A                Bm
Que todo tiempo pasado siempre fue mejor 
G                D
Ni llegar a mi casa ofuscado y molesto 
A                Bm
No quiero estar cansado de llevarme puesto 


G      D        A       Bm
Y aunque esta verdad pueda doler, 
G      D        A       Bm
tengo que decirlo, sin complacer 
G      D        A       Bm
Pero si ofendo, pido perdón 
G      D        A       Bm
Cuando sea grande, quiero ser como vos 

G                D
No quiero cometer tus mismos errores 
A                Bm
Ni creer que todos son estafadores 
G                D
No quiero manejar tus mismos valores 
A                Bm
Ni que cada día sea igual a los anteriores 


G                D
No quiero no poder controlar mis enojos 
A                Bm
Ni cargar esa tristeza en los ojos 
G                D
Mojados y rojos, ajados y flojos 
A                Bm
No quiero resignarme a ser mis despojos 


G                D
Ni echar con vehemencia la culpa a los demás
A                Bm 
de lo que es mi incumbencia y responsabilidad 
G                D
Ni que me de por probar en alguna idiotez 
A                Bm
lo que no pude hacer cuando tuve 23 


G      D        A       Bm
Y aunque esta verdad pueda doler, 
G      D        A       Bm
tengo que decirlo, sin complacer
G      D        A       Bm 
Pero si ofendo, pido perdón 
G      D        A       Bm
Cuando sea grande, no quiero ser como vos 


SOLO: [Acompañado por los mismos acordes]

E|--------------------------------------------------|
B|--15-15-15-15-------------15-15-15-15-------------|
G|--------------16-16-16-16-------------------------|
D|--------------------------------------16-16-16-16-|
A|--------------------------------------------------|
E|--------------------------------------------------|

E|--------------------------------------------|
B|-15--15-15--15-15--15-15--15---17-15-14-12--|
G|---16-----16-----14-----14------------------|
D|--------------------------------------------|
A|--------------------------------------------|
E|--------------------------------------------|

E|--------------------------------------------------|
B|--20-20-20-20-19-19-19-19-17-17-17-17-19-19-19-19-|
G|--------------------------------------------------|
D|--------------------------------------------------|
A|--------------------------------------------------|
E|--------------------------------------------------|

E|--------------------------------------------|
B|-15--15-15--15-15--15-15--15---17-15-14-12--|
G|---16-----16-----14-----14------------------|
D|--------------------------------------------|
A|--------------------------------------------|
E|--------------------------------------------|

G                D
No quiero que ya nada me provoque placer 
A                Bm
Ni que cuando el dolor me toque odie el ayer
G                D 
Ni mirar fotos viejas y ponerme a llorar 
A                Bm
O que nombren a alguien y empezar a temblar. 


G                D
No quiero llevar esa vida mal trecha 
A                Bm
con sospechas de dolo y la ilusión desecha 
G                D
Ni lanzar pestes creyéndome Apolo 
A                Bm
Ni que me molesten, una fecha estar solo. 


G                D
Y aunque esto se preste a mal interpretar 
A                Bm
No quiero que crean que es solo por criticar. 
G                D
Y espero que tan solo sea una declaración 
A                Bm
Porque ni yo se si quiero que quieras ser como yo 


G      D        A       Bm
Y aunque esta verdad pueda doler,
G      D        A       Bm 
tengo que decirlo, sin complacer.
G      D        A       Bm 
Pero si ofendo, pido perdón. 
G      D        A       Bm 
Cuando sea grande, no quiero ser como vos 
G      D        A       Bm 
Y aunque esta verdad pueda doler, 
G      D        A       Bm 
tengo que decirlo, sin complacer. 
G      D        A       Bm 
Pero si ofendo, pido perdón.
G      D        A       Bm  
Cuando sea grande?


Saludos desde Colombia!!!





Calificar esta versión:
Aviso: Este fichero es trabajo propio de su transcriptor y representa su interpretación personal de la canción. El material contenido en esta página es para exclusivo uso privado, por lo que se prohibe su reproducción o retransmisión, así como su uso para fines comerciales.
Más versiones de Cuando Sea Grande, El Cuarteto De Nos
Cuando Sea Grande
acordes
Cuando Sea Grande
tablatura
Cuando Sea Grande (ver 2)
tablatura
Descubre más canciones de El Cuarteto De Nos