Buen Día Benito, El Cuarteto De Nos (tablatura)

Autor: Lucaskun | 38525 visualizaciones



Buen Día Benito - El Cuarteto de Nos.
Dm x 9

E-|--------------------------------------------------------------
B-|------15-15-15-15-15-15-15-15-15~-----------------------------
G-|--------------------------------------------------------------
D-|--------------------------------------------------------------
A-|--------------------------------------------------------------
E-|--------------------------------------------------------------

   Dm            F
Buen día Benito te vine a visitar
   A#           A
Buen día Benito te vine a visitar
Dm
Buen día benito de acordas de mí?
     E
Soy aquel que jugaba contigo en el jardin
       Gm
Te he buscado y rastreado, obsesionado para verte
      A#               A
Qué suerte haberte encontrado al fin!

Dm
Te acordas ahora?, caias a casa a cualquier hora
      E
te comías mis moras, si sobraba las llevabas
              Gm
por que te obligaba una vividora y ni vos sabias
            A#               A
si esa señora era tu madre o tu tutora.
Dm                                           E
Sabes quien soy? ese el que le contaste el final
                                  Gm
de una peli de cowboys, sí soy el dueño del libro de Tolstói
                         A#
el que le pegaste como tapa una playboy
        A
me acuerdo como si fuera hoy.
Dn                                           E
Y no esta lejano el verano que me robaste el aeroplano
                             Gm
seguiste y te fuiste sin sutileza con mi gata siamesa
                        A#             A
mi joystick, el cubo de Rubik y una pieza del Meccano.

   Dm            F
Buen día Benito te vine a visitar
   A#           A
Buen día Benito te vine a visitar
   Dm            F
Buen día Benito te vine a visitar
   A#           A
Buen día Benito te vine a visitar

Dm
Te acordás que te reíste de mi acné juvenil?
E                                           Gm
te creíste viril y me dijiste sarcástico: Te rompo la cara gil
                           A#                A
y no te deja sano ni el cirujano más plástico de Beverly Hills
Dm                                                 E
y lo hiciste, me la diste en la nariz, ves esta cicatriz?
                                     Gm
fuiste vil, no me dieron diez puntos me dieron mil
                             A#                        A
y ahora soy un simil de las Líneas de Nazca, en el frio de Alaska
o en el calor de Brasil.
Dm                           E
Hace memoria, me robaste la novia en preparatoria
                        Gm
yo la quería y vos te la llevaste a la cama con no se que historia
           A#                A
y por escoria te hice la cruz mientras me hacías la V de la victoria
Dm                                 E
no son teorías mías, no fuiste el que tentó a mi hermano
                           Gm
con esas porquerías, te sobró cobardía y te falto decencia
                      A#             A
cuando lo viste temblando luchando con la abstinencia

   Dm            F
Buen día Benito te vine a visitar
   A#           A
Buen día Benito te vine a visitar
   Dm            F
Buen día Benito te vine a visitar
   A#           A
Buen día Benito te vine a visitar

(SOLO) Dm E Gm A# A (2 veces)

E-|------------------------------------------12~-12--12h13---12--
B-|---------------5---6--5------9~--9--9h10----------------------
G-|------7~---7-------------7------------------------------------
D-|--------------------------------------------------------------
A-|--------------------------------------------------------------
E-|--------------------------------------------------------------

E-|--------9b17~----17--18--17~---17-17--13--12--10---15~--------
B-|-10--9--------------------------------------------------------
G-|--------------------------------------------------------------
D-|--------------------------------------------------------------
A-|--------------------------------------------------------------
E-|--------------------------------------------------------------

E-|--------------------------------------------------------------
B-|--------------------------------------------------------------
G-|--15~-14--12--------------------------------------------------
D-|---------------14_--14 14h15--14--12--13~~--------------------
A-|--------------------------------------------------------------
E-|--------------------------------------------------------------

Dm
Te olvidaste que tu padre era el jefe de el mio?
E
y que por libre albedrío lo echó del trabajo
                   Gm
aquel invierno tan frio, me da escalofríos
                     D#                  D
cuando ese lio rememoran, porque ahí aprendí
que los hombres también lloran
Dm                       E
Y entonces, por qué esa vez llamaste al 911?
                               Gm
dijiste que no hable y me denunciaste a la policía,
                   A#                A
vos eras culpable soy inocente y dijiste que el incidente
era culpa mía.
Dm                                            E
Pero hoy tengo con la justicia una cita y no será en vano
                     Gm
tanto recé para encontrarte a la virgencita y a San Cayetano
           A#                 A
que después de esta visita seguro quedamos a mano.

   Dm            F
Buen día Benito te vine a visitar
   A#           A
Buen día Benito te vine a visitar
   Dm            F
Buen día Benito te vine a visitar
   A#           A
Buen día Benito te vine a visitar

Dm x15


E-|--------------------------------------------------------------
B-|------15-15-15-15-15-15-15-15-15-15-15-15-15-15-15-15~--------
G-|--------------------------------------------------------------
D-|--------------------------------------------------------------
A-|--------------------------------------------------------------
E-|--------------------------------------------------------------





Comentarios del colaborador: Mi primera tablatura (yo hice solo las tablaturas, los acordes no son mios pero estan muy bien, perfectos, y la tablatura tambien, espero que les guste, sirva y que digan lo mismo ^^

Calificar esta versión:
Aviso: Este fichero es trabajo propio de su transcriptor y representa su interpretación personal de la canción. El material contenido en esta página es para exclusivo uso privado, por lo que se prohibe su reproducción o retransmisión, así como su uso para fines comerciales.
Más versiones de Buen Día Benito, El Cuarteto De Nos
Buen Día Benito
acordes
Buen Día Benito
tablatura
Descubre más canciones de El Cuarteto De Nos