Son Sueños, El Canto Del Loco (tablatura)

Autor: Anónimo | 44417 visualizaciones

Afinación:  E A D G B E

Esta canción es una adaptación de la original para tocarla en MI, 
suena igual que el disco. Si quereis tocar lo mismo
que toca él, afinad la guitarra medio tono abajo 
y asi tocarlo un traste más arriba.



Acordes:

   Do#   Re#   Sol#   La#m   Si#m(Dom)   Mi#(Fa)
|---4-----6-----4------1-------3-----------1---------------|
|---6-----8-----4------2-------4-----------1---------------|
|---6-----8-----5------3-------5-----------2---------------|
|---6-----8-----6------3-------5-----------3---------------|
|---4-----6-----6------1-------3-----------3---------------|
|---------------4--------------------------1---------------|



Intro: 

Do#   Re#   Sol#  x3

La#m   Re#  x1



Verso:

Do#  Re#  Sol#
Son sueños

Do#  Re#  Sol#
Que son de verdad

Do#  Re#  Sol#

      La#m            Re#
Me gustaria que fuera real

Do#  Re#  Sol#
Son sueños

Do#  Re#  Sol#
Quiero llegar hasta el final

Do#  Re#  Sol#

        La#m        Re#
Y nada sirve si no estas

Sol#            La#m
En silencio, te busco

Do#           Re#
Y sueño con poderte amar



Estribillo:

La#m            Re#
Y te sigo buscando tanto

Si#m             Mi#
Y tu en mi nunca te has fijado

La#m        Re#              Do#
Y por eso te tengo que inventar

La#m            Re#
Y te sigo esperando tanto

Si#m             Mi#
Y tu en mi nunca te has fijado

La#m        Re#              Do#
Y por eso te tengo que encontrar



Verso:

Do#  Re#  Sol#
Son  gestos

Do#  Re#  Sol#
Que quiero mirar

Do#  Re#  Sol#

     La#m            Re#
Me gustaria poderte tocar

Do#  Re#  Sol#
Son sueños

Do#  Re#  Sol#
Quiero que existas nada mas

Do#  Re#  Sol#

        La#m        Re#
Sigo buscando donde estas

Sol#            La#m
En silencio, te busco

Do#           Re#
Y sueño con poderte amar



Estribillo:

La#m            Re#
Y te sigo buscando tanto

Si#m             Mi#
Y tu en mi nunca te has fijado

La#m        Re#              Do#
Y por eso te tengo que inventar

La#m            Re#
Y te sigo esperando tanto

Si#m             Mi#
Y tu en mi nunca te has fijado

La#m        Re#              Do#
Y por eso te tengo que encontrar



Solo:

|-------------------------------------------------------------------11-------------------
|----------------------------------------------------------9-11^(12)---11^(12)-11-9-11~--
|-----/6-6-6-5---------/6-6-6-5--------/6-6-6-5-6-6/8~---8-------------------------------
|--------------8-6~-------------6~-----------------------------------------------------
|----------------------------------------------------------------------------------------
|----------------------------------------------------------------------------------------

|----------------11----------------------------------------------------------------------|
|-------9-11^(12)---11^(12)-11-9-11~----------------------------------------------------|
|-----8----------------------------------------------------------------------------------|
|----------------------------------------------------------------------------------------|
|----------------------------------------------------------------------------------------|
|----------------------------------------------------------------------------------------|



Sol#            La#m
En silencio, te busco

Do#           Re#
Y sueño con poderte amar



Estribillo:

La#m            Re#
Y te sigo buscando tanto

Si#m             Mi#
Y tu en mi nunca te has fijado

La#m        Re#              Do#
Y por eso te tengo que inventar

La#m            Re#
Y te sigo esperando tanto

Si#m             Mi#
Y tu en mi nunca te has fijado

La#m        Re#              Do#
Y por eso te tengo que encontrar

La#m            Re#
Y te sigo buscando tanto

Si#m             Mi#
Y tu en mi nunca te has fijado

La#m        Re#              Do#
Y por eso te tengo que inventar

Fuente original: LaCuerda
Colaborador original: MaLaKiaN [the_wizard42@hotmail.com]
Calificar esta versión:
Aviso: Este fichero es trabajo propio de su transcriptor y representa su interpretación personal de la canción. El material contenido en esta página es para exclusivo uso privado, por lo que se prohibe su reproducción o retransmisión, así como su uso para fines comerciales.
Más versiones de Son Sueños, El Canto Del Loco
Son Sueños
acordes
Son Sueños (ver 2)
acordes
Son Sueños (ver 3)
acordes
Son Sueños
tablatura
Descubre más canciones de El Canto Del Loco