Despiértame, El Canto Del Loco (tablatura)

Autor: Anónimo | 32881 visualizaciones

ACORDES:> F#m D Bm C#m A E Bm7 C#m7

Se puede hacer con cejilla en 1er traste
(mientras una guitarra hace los acordes enteros,
 la 2ª toda solo las 2 cuerdas superiores)

F#m
  No quedan sueños,
D                       F#m
  los ha arrastrado el mar.
F#m
  Te deja seco,
    (después de esto la segunda guitarra hace algo  komo esto)
          e-------------------|-------------------|
          B-------------------|-------------------|
          G-------------------|-------------------|
          D-------------------|-------------------|
          A--4-4-4-4-4-4-4-4--|--4-4-4-4-4-4-4-4--|
          E--2-2-2-2-2-2-2-2--|--4-4-4-4-5-5-5-5--|
D                      Bm
  te quita hasta el hogar.

        (Bm7)
  No veo nada,
C#m          (C#m7)    D
  no queda ni un papel, no vale nada.

ESTRIBILLO:
A         E            Bm               F#m  E     A
Despiértame, di que paraste el tiempo y nada sucedió
          E              Bm              F#m   E     Bm   F#m E
y acuéstate, vuelve a contarme el cuento donde acaba bien.

(mientras, la 2ª guitarra hace algo así:)
 A              E              Bm             F#m     E            -
e--------5-----|--------------|--------------|--5-5-x-4--4-4--|     |
B------5---5---|--------9-----|--------5-----|--5-5-x-5--5-5--|     |
G----6-------6-|------9---9---|------2---2---|----------------|     |--x2
D--7-----------|----9-------9-|----4-------4-|----------------|     |
A--7-----------|--7-----------|--2-----------|----------------|     |
E--------------|--0-----------|--------------|----------------|    -

 Bm           F#m     E
e--------------|--5-5-x-4--4-4--|
B--------5-----|--5-5-x-5--5-5--|
G------2---2---|----------------|
D----4-------4-|----------------|
A--2-----------|----------------|
E--------------|----------------|

--------------------------------------------
  Y ahora lo pienso,
  no encuentra la razón.
  Qué triste es esto,
  la tierra se enfadó.
  La roca suena,
  hay llantos de perdón, los cuerpos pesan.

Estribillosx2 (cuidado xk después de tocarlo una vez se
               enlazan ambos mediante un LA)
     F#m      E     Bm -->(se repite haciendo el arpegio)
   ...donde acaba bien.

(Después viene una especie de solo por la 2ªguit. Mientras la
1ª sigue tokando akordes)

Bm7                         C#m7
e------0-----0-|------0-------|--------4-----4-|------4-------|
B----3---3-----|--2-----2---3-|------5---5-----|--5-----5---5-|
G--2-------2---|----3-----3---|--2/4-------4---|----4-----4---|
D--------------|--------------|----------------|--------------|
A--------------|--------------|----------------|--------------|
E--------------|--------------|----------------|--------------|

D
------0-------|--------------|
----3---3---3-|-----3-2---2--|
--2-------2---|---2----------|
--------------|--------------|
--------------|--------------|
--------------|--------------|

A         E            Bm               F#m  E     A
Despiértame, di que paraste el tiempo y nada sucedió
          E              Bm              F#m   E        A
y acuéstate, vuelve a contarme el cuento donde acaba bien.

(Lo mismo que antes con el bien y el Déspiertame)
         E            Bm               F#m  E     A
Despiértame, di que paraste el tiempo y nada sucedió

          E              Bm              F#m   E     Bm
y acuéstate, vuelve a contarme el cuento donde acaba bien.
F#m      E     A
donde acaba bien.


Weno gnt, aunk las otras versiones stan bastant bn kreo k sta es
la correcta. Aun asi, korrekcions, komentarios, kritikas,peticiones
y alabanzas a corrimingo@hotmail.com

Saludos a tods los KOLEGAS d CC¡!!( y specialmnt a ti...)
interesads en forma grupo x las cerkanias kontakten a la
direccion d arriba...

 --[D M N]--
Calificar esta versión:
Aviso: Este fichero es trabajo propio de su transcriptor y representa su interpretación personal de la canción. El material contenido en esta página es para exclusivo uso privado, por lo que se prohibe su reproducción o retransmisión, así como su uso para fines comerciales.
Más versiones de Despiértame, El Canto Del Loco
Despiertame
acordes
Despiertame (ver 2)
acordes
Despiertame (ver 3)
acordes
Despiértame
tablatura
Descubre más canciones de El Canto Del Loco