Canciones, El Canto Del Loco (tablatura)

Autor: Anónimo | 17662 visualizaciones

Weno, aquí os paso la canción, he incluido el solo y
espero que os guste. No hace falta ningún tipo de afinación.
Se toca en 5 (quintas).

Intro: G#-A#-C-Db(C#)x2

G#          A#
Aquí estoy, otra vez
C             Db           G#             A#
Y vuelvo para darte lo que me hace estar bien
C             Db          G#         A#
Todas esas palabras que tú sientes y sé,
  F              Db          G#       A#
Que muchas forman parte de tu vida también,
  C              Db
Por eso te las canto.

F                      Bb
Y pensar que lo que escribo
                      Db
Pueda ser tan importante
                     Eb
Que toque algún corazón.
F
Y he pensado darte
Bb
Todo lo que tengo
Db                             Eb
Y prefiero hacerlo en forma de canción. <<¡Son canciones!>>

G#          A#
Aquí hago lo que quiero
 Db           Eb
Aquí cuento mis miedos
G#        A#        Db
Y me siento mucho mejor... <<¡Son canciones!>>
G#           A#
Quiero que busques dentro
 Db           Eb
Mientras yo te lo cuento
G#           A#         Db
Y sientas lo que siento yo.


Y con ver, que tú ves
Que estoy contando algo
Que te mueve la piel,
Que dentro te ha tocado
Y que tu gesto hace ver
Que algo te ha pasado
Y que te sientes también
Tan identificado.

Y pensar que lo que escribo
Puede ser tan importante
Que toque algún corazón.
Y he pensado darte
Todo lo que tengo
Y prefiero hacerlo en forma de canción. <<¡Son canciones!>>

Aquí hago lo que quiero
Aquí cuento mis miedos
y me siento mucho mejor...  <<¡Son canciones!>>
Quiero que busques dentro
Mientras yo te lo cuento
Y sientas lo que siento yo.

E----------------------------------------------------------
B----------------------------------------------------------
G---------6-5----------5-6----------6-5----------5-6-5-7---
D-6-6-6-6------6-6-6-6------6-6-6-6------6-6-6-6-----------
A----------------------------------------------------------
E----------------------------------------------------------

E-----------------------------------
B-----------------------------------
G--8-8-8-8-6-6-6-6-5-5-5-5-6-6-6-6--
D-----------------------------------
A-----------------------------------
E-----------------------------------   x2

E----------------------------------------------------------
B----------------------------------------------------------
G---------6-5----------5-6----------6-5----------5-6-5-7---
D-6-6-6-6------6-6-6-6------6-6-6-6------6-6-6-6-----------
A----------------------------------------------------------
E----------------------------------------------------------

E----------------------------------------------------------
B----------------------------------------------------------
G--8-8-8-8-6-6-6-6-5-5-5-5-6-6-6-6-8-8-8-8-10-10-10-10-12--
D----------------------------------------------------------
A----------------------------------------------------------
E----------------------------------------------------------

G-12-12-12-13----------------------------------------------

Aquí hago lo que quiero...

Espero que os haya gustado, alguna duda o algo a wyzox93@hotmail.com
Calificar esta versión:
Aviso: Este fichero es trabajo propio de su transcriptor y representa su interpretación personal de la canción. El material contenido en esta página es para exclusivo uso privado, por lo que se prohibe su reproducción o retransmisión, así como su uso para fines comerciales.
Más versiones de Canciones, El Canto Del Loco
Canciones
acordes
Canciones
tablatura
Descubre más canciones de El Canto Del Loco