Besos, El Canto Del Loco (tablatura)

Autor: carlos avatar | 17858 visualizaciones

esto es el solo de la cancion de basos espero q les guste 
creo q ya saben como se afina la guitarra en las canciones del canto del loco no asi q agui se las dejo

E------------------------------------------------------|
A------------------------------------------------------|
D------------------------------------------------------|
G--------7-5-3-5--------7-5-3-5----3---3?3-3-----3b----|
B---------------------------------------3-4-4-4-3------|
E------------------------------------------------------|


E----------------------------------------------------------|
A----------------------------------------------------------|
D----------------------------------------------------------|
G-------7-5-3-5--------7-5-3-5-------3----3--3--3-----3b---|
B------------------------------------------3--3--4-4-3-----|
E----------------------------------------------------------|


E--------------------------------------------------------------|
A--------------------------------------------------------------|
D--------------------------------------------------------------|
G------7-5-3-5-------7-5-3-5---3---3----3---3----3-------------|
B------------------------------------3---4----6---6------------|
E--------------------------------------------------------------|


E--------------------------------------------------------------|
A--------------------------------------------------------------|
D--------------------------------------------------------------|
G---10b-10b-10b-10b--------------------------5-5-3b------------|
B-----8----8----8----8--10-10-8-8-6-6-4-4-3-3------------------|
E--------------------------------------------------------------|
Calificar esta versión:
Aviso: Este fichero es trabajo propio de su transcriptor y representa su interpretación personal de la canción. El material contenido en esta página es para exclusivo uso privado, por lo que se prohibe su reproducción o retransmisión, así como su uso para fines comerciales.
Más versiones de Besos, El Canto Del Loco
Besos
acordes
Besos (ver 2)
acordes
Besos
tablatura
Descubre más canciones de El Canto Del Loco