A Contracorriente, El Canto Del Loco (bajo)

Autor: Anónimo | 25824 visualizaciones

Intro

G ----------------------------|
A ----------------------------|
D-3333333333-5555555555-66666-|
E-----------------------------|
				
                             X2

Verso 1

Todo lo que hacia...  Despierto y no...  El agua de la ducha...
G-------------------|-------------------|----------------------------|
A-------------------|-------------------|----------------------------|
D-3-33—5-5-4-4------|-33333-3-33-5-5-4-4|3333333333-5555555555-666666|
E-------------------|-------------------|----------------------------|
								
                                                                    X1
Puente (Quiero volver a sentir...)

G----------------------------------------------------------------|	
A----------------------------------------------------------------|
D-3-3-----3-3------3-3---5---3-3------3333333333-555555555-66666-|
E-----4-5-----4-5------4---------4-5-----------------------------|	
								
                                                                X1 	

Coro (A contracorriente...)

G------------------------------------|	
A------------------------------------|
D-3-3-----3-3------3-3---5---3-3-----|
E-----4-5-----4-5------4---------4-5-|

				    X3
Verso 2

Ahora y desde...     Perdí todo...       El canto del loco...
G-------------------|-------------------|----------------------------|
A-------------------|-------------------|----------------------------|
D-3-33—5-5-4-4------|-33333-3-33-5-5-4-4|3333333333-5555555555-666666|
E-------------------|-------------------|----------------------------|

								    X1  
Puente (Quiero volver a sentir...)

G----------------------------------------------------------------|	
A----------------------------------------------------------------|
D-3-3-----3-3------3-3---5---3-3------3333333333-555555555-66666-|
E-----4-5-----4-5------4---------4-5-----------------------------|

								X2
Coro (A contracorriente...)

G------------------------------------|	
A------------------------------------|
D-3-3-----3-3------3-3---5---3-3-----|
E-----4-5-----4-5------4---------4-5-|

				    X3

Final 

G----------------------------------------------------------------|	
A----------------------------------------------------------------|
D-3-3-----3-3------3-3---5---3-3------3333333333-555555555-66666-|
E-----4-5-----4-5------4---------4-5-----------------------------|

								X1
G------------------------------------|	
A------------------------------------|
D-3-3-----3-3------3-3---5---3-3-----|
E-----4-5-----4-5------4---------4-5-|

				    X3

Fuente original: LaCuerda
Colaborador original: Rubi [ruben_carrasco@hotmail.com]
Calificar esta versión:
Aviso: Este fichero es trabajo propio de su transcriptor y representa su interpretación personal de la canción. El material contenido en esta página es para exclusivo uso privado, por lo que se prohibe su reproducción o retransmisión, así como su uso para fines comerciales.
Más versiones de A Contracorriente, El Canto Del Loco
A Contracorriente
acordes
A Contracorriente
bajo
Descubre más canciones de El Canto Del Loco