El Silencio Del Caos Infernal, El Bordo (acordes)

Autor: el73rco | 23693 visualizaciones

abmdefsosm
El Bordo - El silencio del caos infernal

INTRO:
e|-8-8-7-7-5-5-7-7-8-8-7-7-5-5-7-7-----|
B|-5-5-5-5-5-5-5-5-5-5-5-5-5-5-5-5-----|
G|-------------------------------------|
D|----------------------------------4--|   [x2]
A|----------------------------------4--|
E|----------------------------------2--|

e|----------------------------------------------------|
B|----------------------------------------------------|
G|----------------------------------------------------|
D|-------------1-2-2-4-4/6-7-7/9-7-6-7-4-6-4----3-3-3-|
A|-------2-4-5----------------------------------3-3-3-|
E|-2-4-5----------------------------------------1-1-1-|

--------------------------------------------------------------

F#m             A 
De vuelta a ningún lugar
  D                      Bm
Sangrando el dolor de vivir las heridas
 F#m                E              D
Bienvenido a la locura de la gran ciudad!
F#m            A 
Los chicos dormidos van,
  D                      Bm
Buscando amor en el ciberespacio
 F#m                E              D
Bienvenido al SILENCIO DEL CAOS INFERNAL

--------------------------------------------------------------

e|-8-8-7-7-5-5-7-7-8-8-7-7-5-5-7-7-----|
B|-5-5-5-5-5-5-5-5-5-5-5-5-5-5-5-5-----|
G|-------------------------------------|
D|----------------------------------4--|   [x2]   D|-------|
A|----------------------------------4--|          A|-3-3-3-|
E|----------------------------------2--|          E|-1-1-1-|

--------------------------------------------------------------

Las voces no creen más
[politico es un insulto barato]
Los que creen miran mas alla
Mientras tanto el rock se va
Salteando estructuras, mirando al costado
 F#m              E         Bm
No le gusta ser un heroe pop!

             D     F#m
Y no voy a olvidar
           E
Ni en mis sueños
             D     F#m
Solo sé llorar
           E
Con el corazón.
             D     F#m
Y no voy a olvidar
           E
Ni en mis sueños
             D     F#m
Solo sé llorar
           E
Con el corazón.

--------------------------------------------------------------

e|-8-8-7-7-5-5-7-7-8-8-7-7-5-5-7-7-----|
B|-5-5-5-5-5-5-5-5-5-5-5-5-5-5-5-5-----|
G|-------------------------------------|
D|----------------------------------4--|
A|----------------------------------4--|
E|----------------------------------2--|

e|-8-8-7-7-5-5-7-7-8-8-7-7-5-5-7-7-----------|
B|-5-5-5-5-5-5-5-5-5-5-5-5-5-5-5-5-----------|
G|------------------------------------5-6-7--|
D|------------------------------------5-6-7--|
A|------------------------------------3-4-5--|
E|-------------------------------------------|
--------------------------------------------------------------

            E
Y que me digan, me soplen y agiten las velas
        D
Yo bailo al compás de mi ritmo sagrado
        E
Ya no quiero ver pero aún no me he mirado
       D                              A 
La suerte no avisa si está de tu lado.

E
Voy gritando mi verdad
       F#m                                    D
Voy dejando en el camino mil recuerdos

Y no voy a olvidar
Ni en mis sueños
Solo sé llorar
Con el corazón.
Y no voy a olvidar
Ni en mis sueños
Solo sé llorar
Con el corazón.
 
Calificar esta versión:
Aviso: Este fichero es trabajo propio de su transcriptor y representa su interpretación personal de la canción. El material contenido en esta página es para exclusivo uso privado, por lo que se prohibe su reproducción o retransmisión, así como su uso para fines comerciales.
Más versiones de El Silencio Del Caos Infernal, El Bordo
El Silencio Del Caos Infernal
acordes
El Silencio Del Caos Infernal (ver 2)
acordes
El Silencio Del Caos Infernal
tablatura
Descubre más canciones de El Bordo