El Insatisfecho, El Bordo (bateria)

Autor: Anónimo | 44043 visualizaciones

C: crash
H: hi-hat
Ha: hi-hat abierto
Ri: Ride
R: redoblante
T1: tom 1
T2: tom 2
Tp: tom de Pie
B: bombo

Base del tema…
                                      ___________ 2 veces ___________
C |-X-------------------------------|---------------------------------|
Ha|-------------------------X-------|---------------------------------|
H |---------X-------X---------------|-X-------X-------X-------X-------|
R |---------0---------------0-------|---------0---------------0-------|
T1|---------------------------------|---------------------------------|
T2|---------------------------------|---------------------------------|
Tp|---------------------------------|---------------------------------|
B |-0-----------0---0---------------|-0-----------0---0---------------|

C |-X-------------------------------|
Ha|-------------------------X-------|
H |---------X-------X---------------|
R |---------0-----------0---0-------|
T1|---------------------------------|
T2|---------------------------------|
Tp|---------------------------------|
B |-0-----------0---0---------------|

Voz de trueno...
   ___________ 2 veces ___________
C |---------------------------------|-X-------------------------------|
Ha|-------------------------X-------|-------------------------X-------|
H |-X--------X-------X--------------|---------X-------X---------------|
R |----------0--------------0-------|---------0---------------0-0-0-0-|
T1|---------------------------------|---------------------------------|
T2|---------------------------------|---------------------------------|
Tp|---------------------------------|-------------------------0-0-0-0-|
B |-0------------0---0--------------|-0-----------0---0---------------|

Punteos

C |---------------------------------|
Ha|---------------------------------|
H |---------------------------------|
Ri|-X---X---X---X---X---X---X---X---|
R |---------0---------------0-------|
T1|---------------------------------|
T2|---------------------------------|
Tp|---------------------------------|
B |-0-----------0---0---------------|

Que le guste a la prensa... Queres que sea lo q soy…

C |---------------------------------|
Ha|---------------------------------|
H |---------------------------------|
Ri|---------------------------------|
R |---------0---------------0-------|
T1|---------------------------------|
T2|---------------------------------|
Tp|-X---X---X---X---X---X---X---X---|
B |-0-----------0---0---------------|
Calificar esta versión:
Aviso: Este fichero es trabajo propio de su transcriptor y representa su interpretación personal de la canción. El material contenido en esta página es para exclusivo uso privado, por lo que se prohibe su reproducción o retransmisión, así como su uso para fines comerciales.
Más versiones de El Insatisfecho, El Bordo
El Insatisfecho
acordes
El Insatisfecho
bateria
Descubre más canciones de El Bordo