Donde Voy, El Bordo (tablatura)

Autor: santii_25 | 33805 visualizaciones

Intro:  [G# - F# - C#] x2

Mientras, el saxo hace esto:

e||--------------------------
B||--------------------------
G||-----3-5-6-6/8-6-5-3------
D||--6------------------6----
A||--------------------------
E||--------------------------

e||-------------------------------
B||------------6h7-6--------------
G||-----5-6-8---------8-6-5h6~----
D||--6----------------------------
A||-------------------------------
E||-------------------------------

----------------------------------------------
----------------------------------------------

G#                  D#
Sin confiarme, sin ver atrás,


     Bbm(1)                 C#             G#
sin creer que al miedo puedo evitar, yo sigo.


        D#            C# (2)
Es imposible de entender.

----------------------------------------------

En (1), hace esto:

e||----------------------
B||----------------------
G||--2h3-----/6-5-3-5-1--
D||----------------------
A||----------------------
E||----------------------

Y en (2), hace esto:

e||-------------
B||-------------
G||-------------
D||-------------
A||--3h4--3h4---
E||-------------

----------------------------------------------
----------------------------------------------


   G#             D#
Te dicen: Dale, vení pasa,


        Bbm(3)            C#
vos comprame lo que te doy,


       G#         D#           C#   (4)
y por siempre tendrás mi bendición.

----------------------------------------------

En (3), hace lo mismo que en (1),
pero repite más las notas:

e||----------------------------
B||----------------------------
G||--2h3-----/6-6-5-5-3-3-5-1--
D||----------------------------
A||----------------------------
E||----------------------------

En (4), hace esto:

e||-----------
B||---4b------ También hace algo de vibrato,
G||---4b------ las estira mucho las cuerdas.
D||----------- Busquenle la medida.
A||-----------
E||-----------

----------------------------------------------
----------------------------------------------


Cm       C#          G#           D#
No te escapes que si no nunca podrás entrar,

  Bbm(5)
directo al cielo.

    F#(6)      C#       D#
Sin falsas promesas yo voy.

----------------------------------------------

En (5), toca:

e||----------------------
B||-----------8--8------- Guarda con no estirar la nota 6,
G||-----------8b-8b--6/-- o la segunda 2, es lo mismo.
D||--7h8~----------------
A||----------------------
E||----------------------

En (6), toca:

e||---------------------------------
B||---------------------------------
G||------------------------8-8-8----
D||---------------3--6-----8-8-8----
A||-----1--4-3h4-----------6-6-6----
E||--2------------------------------

----------------------------------------------
----------------------------------------------


            G#          C#            D#       C#
Porque, mi amigo, no hay prisas ni a donde correr,


           G#          C#        D#       C#
si yo me pierdo en el baile, no voy a volver.


          G#(7)      (8)       C#
El viento sopla muy fuerte, en esta dirección,


          G#(9)   F#            C#
y este camino me dice a donde voy.


          G#       F#          C#
Y este camino me lleva a donde voy.

----------------------------------------------

En (7) hace, con el mismo cuidado que en (5):

e||--4-----4-------
B||-----4-----4----
G||-----6b----6b---
D||----------------
A||----------------
E||----------------

En (8) hace:
                                C#
e||----------------------------------------
B||----------------------------------------
G||-----------3h4p3-------------6-6---4----
D||------4-6---------6-4-6------6-6---6----
A||---6-------------------------4-4--------
E||----------------------------------------

Y en (9), toca:

e||--4--4-----2--2------------
B||--4---4----2---2-----------
G||--5----5---3----3---6-6-6--
D||--6--------4--------6-6-6--
A||--6--------4--------4-4-4--
E||--4--------2---------------


----------------------------------------------
----------------------------------------------

Repite Intro

----------------------------------------------
----------------------------------------------

Sin quebrarme, sin pestañear,
con los ojos fijos hacia un lugar yo sigo,
y ni yo puedo entender.

Me dicen: Ale, vení pasa
vos comprame lo que te doy,
y por siempre tendrás la bendición.

Voy a patearle una canción al que hoy te quiere pero nunca te quiso,
no entiendo muy bien que cambio.

----------------------------------------------
----------------------------------------------


D#(10)           C#
Van cayendo de a una las puertas,


D#(10)              C#
que te alejan de lleno al destino, ya ves.

----------------------------------------------

En 10, toca:

     D#                C#
e||-----------------------------------
B||-----------------------------------  Durante todas estas notas,
G||--8~-8~---8~-8~-----6~-6~---6~-6~--  utiliza el waw-waw.
D||-----------------------------------
A||-----------------------------------
E||-----------------------------------

----------------------------------------------
----------------------------------------------

Solo del Saxo: [G# - F# - C#] x2


e||----------8------9-8----------------------------------
B||-----9-11---11-9-----9--------------------------------
G||--10--------------------------------------------------
D||------------------------------------------------------
A||------------------------------------------------------
E||------------------------------------------------------

     |Rápido............|
e||------------------------------------------------------------9--
B||--11p9------12-11-9-11--11/13-11-9---9-12-11-9-12-11-9-11-9----
G||-------h10-----------------------------------------------------
D||---------------------------------------------------------------
A||---------------------------------------------------------------
E||---------------------------------------------------------------


----------------------------------------------

Solo de la guitarra: [G# - F# - C#] x2

----------------------------------------------

     Cm        C#     G#           D#          Bbm
e||--------------------------------------------------
B||--------------------------------------------------
G||--5---3-5-5/6---5-6-5-----5/3-1-3---3/5-3-1-3-3---
D||--------------------------------------------------
A||--------------------------------------------------
E||--------------------------------------------------

----------------------------------------------

Toca (6), y empieza:

Porque mi amigo...


----------------------------------------------
----------------------------------------------

FIN.

Comentarios del colaborador: La Cuerda.com

Calificar esta versión:
Aviso: Este fichero es trabajo propio de su transcriptor y representa su interpretación personal de la canción. El material contenido en esta página es para exclusivo uso privado, por lo que se prohibe su reproducción o retransmisión, así como su uso para fines comerciales.
Más versiones de Donde Voy, El Bordo
Donde Voy
acordes
Donde Voy
tablatura
Descubre más canciones de El Bordo