De Vuelta Al Juego, El Bordo (acordes) (ver 2)

Autor: Anónimo | 25019 visualizaciones

aa5b5dd5ee5fsosfsos5gsos5g5
Riff [intro]

e-------------------------------------------|
B-------------------------------------------|
G-------------------------------------------|
D-------------------------------------------|
A---------4-5-7-7-7--2-4-5--4-2----5-4-2----|
E--5-5--5-----------------------5--------5--|

e----------------------------------|
B----------------------------------|
G----------------------------------|
D----------------------------------|
A---------4-5-7-7-7--2-4-5--4-2----|
E--5-5--5-----------------------5--|


A5                         D5-E5
Cuando falten las palabras

y cuando caigan esos sentimientos
B5                      D5
Se te haría más dificil tragar tu dolor?
A5
En el viento, la pelea
E5
sos vos siempre el de abajo
B5
que la rema ya sin fuerzas
  D5
y al que una alegria le vendría bien

Riff

B5       D5              A5     B5
Con la mirada siempre arriba
          D5        A5
entre partidas y regresos escapar
B5           D5            A5    B5
Es este el viaje o es la vida?
         D5                 E-F#-G5-G#5-A5-B5
A dónde vas cuando te piden más?
A5        E5                D5
Caminando hoy llegará la mañana
A5            E5                   D5
quiero ver el sol cuando golpee mi cara
A5        E5                D5
Caminando hoy llegará la mañana
A5            D5             A5        E5
nadie dijo que hoy nos parecemos en nada

Riff

A-D-A-D-A-D-E [X2]
SOLO DE ARMONICA: D-A [X3] D-E


A5                         D5-E5
Cuando falten las palabras

y cuando caigan esos sentimientos
B5                      D5
Se te haría más dificil tragar tu dolor?
A5
En el viento, la pelea
E5
sos vos siempre el de abajo
B5
que la rema ya sin fuerzas
  D5
y al que una alegria le vendría bien

Riff

B5       D5              A5     B5
Con la mirada siempre arriba
          D5        A5
entre partidas y regresos escapar
B5           D5            A5    B5
Es este el viaje o es la vida?
         D5                 E-F#-G5-G#5-A5-B5
A dónde vas cuando te piden más?
A5        E5                D5
Caminando hoy llegará la mañana
A5            E5                   D5
quiero ver el sol cuando golpee mi cara
A5        E5                D5
Caminando hoy llegará la mañana
A5            D5             A5        E5
nadie dijo que hoy nos parecemos en nada
A5        E5                D5
Caminando hoy llegará la mañana
A5            E5                   D5
quiero ver el sol cuando golpee mi cara
A5        E5                D5
Caminando hoy llegará la mañana
A5             D5            A5        E5
nadie dijo que hoy nos parecemos en nada

e-------------------------------------------|
B-------------------------------------------|
G-------------------------------------------|
D-------------------------------------------|
A---------4-5-7-7-7--2-4-5--4-2----5-4-2----|
E--5-5--5-----------------------5--------5--|

e--------------------------------------|
B--------------------------------------|
G--------------------------------------|
D--------------------------------------|
A---------4-5-7-7-7--2-4-5--4-2-7-9-12-|
E--5-5--5------------------------------|

A5-D5-A5-D5-F#5-E5-D5-A5


FIN

 A5 |B5 |D5 |E  |E5 |F# |F#5|G5 |G#5|
    |   |   |   |   |   |   |   |   |
e---|---|---|---|---|---|---|---|---|
B---|---|---|---|---|---|---|---|---|
G---|---|---|---|---|---|---|---|---|
D---|---|-7-|---|-9-|---|-11|---|---|
A-7-|-9-|-5-|-2-|-7-|-4-|-9-|-5-|-6-|
E-5-|-7-|---|-0-|---|-2-|---|-3-|-4-|

Bueno creo que esta completa.. le faltarian un par de detalles
minimos que sacaran mientras escuchan la cancion..

Dedicado a Rodo.. que me hizo conocer la banda y un poco de
lo que es la vida..

Atte: Matias, El Vago
Calificar esta versión:
Aviso: Este fichero es trabajo propio de su transcriptor y representa su interpretación personal de la canción. El material contenido en esta página es para exclusivo uso privado, por lo que se prohibe su reproducción o retransmisión, así como su uso para fines comerciales.
Más versiones de De Vuelta Al Juego, El Bordo
De Vuelta Al Juego
acordes
De Vuelta Al Juego (ver 2)
acordes
De Vuelta Al Juego
armonica
Descubre más canciones de El Bordo