Con El Cuerpo A La Mitad, El Bordo (tablatura)

Autor: Anónimo | 44518 visualizaciones

Intro:
        G
1|-----3---3-|--|
2|-----3---3-|--|
3|-----4---4-|--|
4|-----5---5-|x4|
5|-------5---|--|
6|-2/3-------|--|


        G         D        Em          Bm      -|
1|-----3---3----5---5--------0---0----2---2-|   | ESTO LO TOCA
2|-----3---3----7---7--------0---0----3---3-|   | MIENTRAS SE
3|-----4---4----7---7--------0---0----4---4-|   | HACE EL PUNTEO
4|-----5---5----7---7--------2---2----4---4-|   |
5|-------5----5---5----0-1/2---2----2---2---|   |
6|-2/3--------------------------------------|   |
                                               -|


             (este punteo se hace con dos guitarras)
                             PUNTEO

GUITARRA 1                        |       GUITARRA 2

1)----------0-3-0-------2-------- |  --------------------------------
2)-3-1-0-1-3-----3-1-3-0---------    -----------1-3-1--------3-------
3)------------------------------- |  --4-2-0-2-4------4-2-4-0--------
4)-------------------------------    --------------------------------
5)------------------------------- |  --------------------------------
6)-------------------------------    --------------------------------
                                  |
1)-------------------------------    --------------------------------
2)----------1-3-1---------------- |  --------------------------------
3)-4-2-0-2-4------4-2-4-0-2------    -----------2-4-2----------------
4)----------------------------4-- |  --5-4-2-4-5------2-4-5-2-4------
5)-----------------------------6-    ---------------------------3s5--
6)------------------------------- |  ------------------------------7-


            ESTE PUNTEO VA CON DISTORCION

  C -   C? -   G -  F#-F-Em    A          D
1)------3-----3---------------------------------------
2)-----5-----5--------------------5-8-5---7-6-5-------
3)--3s5---3s6---5s7-6-5-4s5s4----6-----6-------7------
4)------------------------------7---------------------
5)----------------------------------------------------
6)----------------------------------------------------

ESTE ACORDE NO SE BIEN COMO SE LLAMA PERO HAGANLO ASI:
C?:1)-3-
   2)-5-
   3)-6-
   4)-5-
   5)-3-
   6)-*-

        G                     D
Como un barco que vió ultima vez altamar
Em               Bm
hoy me voy para ahogar estas penas
      C           C?       G F#   F  Em
casi siempre muy lejos yo quiero llegar
       A                   D
pero siempre termino en el mismo lugar


      G                   D
Yo no sé que paso ni lo que va a pasar
Em                Bm
van dos rondas y sigo muy mal
         C        C?       G F#  F  Em
no me acuerdo porque ella quiso partir
         A                 D
aunque creo saber por quién estoy así

          C                  G                        Em
Cuando encuentre la salida y vuelva esta noche a mi hogar
       A                D
yo te estaré esperando con el cuerpo a la mitad
     C                  G             Em
te daré toda mi vida y si tu risa no está
       A               D
no me quedaré sentado mejor me vuelvo al bar...


       G                   D
Puede ser porque soy un colgado nomas
Em             Bm
nunca supe ni fechas ni años
       C        C?          G F# F       Em
sin embargo ya ves no es un numero o un mes
        A                   D
el que dice quizá si es que yo la olvide


          G                   D
No es un triste final porque me lo busqué
Em                 Bm
entre diarios, se duerme muy bien
      C        C?        G F#   F  Em
solo pido que cruces el charco sin él
         A                  D
que te acerques un día y me vengas a ver


          C                  G                        Em
Cuando encuentre la salida y vuelva esta noche a mi hogar
       A                D
yo te estaré esperando con el cuerpo a la mitad
     C                  G             Em
te daré toda mi vida y si tu risa no esta
       A               D
no me quedare sentado mejor me vuelvo al bar


C D G Em x2

C D G-F#-F-Em

C D G
Calificar esta versión:
Aviso: Este fichero es trabajo propio de su transcriptor y representa su interpretación personal de la canción. El material contenido en esta página es para exclusivo uso privado, por lo que se prohibe su reproducción o retransmisión, así como su uso para fines comerciales.
Más versiones de Con El Cuerpo A La Mitad, El Bordo
Con El Cuerpo A La Mitad
acordes
Con El Cuerpo A La Mitad
tablatura
Descubre más canciones de El Bordo