Cansado De Ser, El Bordo (tablatura)

Autor: Anónimo | 31722 visualizaciones

Hola gente soy francisco y aca les dejos el intro de este temaso
y tmb les dejo el punteo del saxofon...
Los acordes de la transcripcion anterior estaban bien nada mas
les arregle un poco donde van ubicados..
cualquier duda madenme un email a fran082@hotmail.com

Apregio:

    D     G      A
1)-----0-----0------0------------
2)----3-3---3-3----3-3---3-2-3---
3)---2-----0------2-----2--------
4)--0----------------------------(esto lo hace hasta que dice:
5)---------------0------0--------"y me rindo frente a mi porton"
6)--------3----------------------y ahi empiesa con los acordes)


Decís perdón y un vaso termina en el fondo de sed
ya fue, me voy, y puertas se cierran dejando caer
la sonrisa que esquiva a Carlitos que dice que hoy gana el Ciclón
le pateo cenizas al piso y me rindo frente a mi portón.


(ACA EMPIESA CON LOS ACORDES)
D                      G                    A
Avanzo por la calle angosta y me llama Graciela al pasar
le digo: Me abrigo, vos no te preocupes, si llueve no me va a importar
Voy pensando en que no hace ni un año y las cosas ya no son igual
las disculpas no cuesta aceptarlas, me cuesta saber perdonar.

            G          Bm                      A
Y vuelvo a despertar, cansado de estar tan cansado de ser
          G                D                 A
me digo: “No hay mitad que sea tan mala como la que tenés”.

    D                   G               Em
Y olvido que traigo conmigo canciones y amigos
            A
tu alma es ahora mi estrella
D     G              A
el dolor ya no hace mal.

D                G                   A
Mirando estoy, a veces me toca el silencio total
colgado de la hoja más alta del árbol que sé imaginar
porque hay cosas que sangran por dentro y nadie las puede notar
y me acuesto en la cama que un día la ropa te supe robar.

    Fm                     G
Si percibo en la luna esa luz eterna que
D                    A
reza tu nombre y convida el sabor
       Em            G                   A
quiero amanecer que mañana no soy si no tuve tu ayer...

1)-------------------------------------------------------------
2)-------------------------------------------------------------
3)---------7----7--7s9-7-7s6-----------------------2-2-2s4-2---
4)--7-7s9s7----9-9--------------7s9s7-5-0-5---0-2s4------------
5)-------------------------------------------------------------
6)-------------------------------------------------------------

1)-------------------------------------------------------------
2)--5s7-5-3-3---5s7-7s8s7-0-3---5s7-5-3-3s5--------------------
3)---------4---------------------------4-----6s7-7-6-4-6-4-2---
4)-----------------------------------------------------------5-
5)-------------------------------------------------------------
6)-------------------------------------------------------------

1)-------------------------------------------------------------
2)-------------------------------------------------------------
3)-------------------------------------------------------------
4)------3s4-4s7-7-7s9-7----------------------------------------
5)---4s5-------------------------------------------------------
6)-------------------------------------------------------------

fijense que en el punteo del saxofon hay 2 o 3 notas que no suenan
igual igual sino que son algo parecidas... pero en fin suena bastante
parecido... les dejo un saludo y practiquen el intro q es facil..
Calificar esta versión:
Aviso: Este fichero es trabajo propio de su transcriptor y representa su interpretación personal de la canción. El material contenido en esta página es para exclusivo uso privado, por lo que se prohibe su reproducción o retransmisión, así como su uso para fines comerciales.
Más versiones de Cansado De Ser, El Bordo
Cansado De Ser
acordes
Cansado De Ser
tablatura
Descubre más canciones de El Bordo